  0
SECTION
  2
HEADER
  9
$ACADVER
  1
AC1009
  9
$INSBASE
 10
0
 20
0
 30
0
  9
$EXTMIN
 10
0
 20
0
  9
$EXTMAX
 10
5945
 20
4205
  9
$LIMMIN
 10
0
 20
0
  9
$LIMMAX
 10
5945
 20
4205
  9
$LTSCALE
 40
5
  0
ENDSEC
  0
SECTION
  2
TABLES
  0
TABLE
  2
LTYPE
 70
     9
  0
LTYPE
  2
CONTINUOUS
 70
    64
  3
実線
 72
    65
 73
     0
 40
0.0
  0
LTYPE
  2
DASHED1
 70
    64
  3
--  --  --  --  --  --  --  --  
 72
    65
 73
     2
 40
2.5
 49
1.25
 49
-1.25
  0
LTYPE
  2
DASHED2
 70
    64
  3
----    ----    ----    ----    
 72
    65
 73
     2
 40
5.0
 49
2.5
 49
-2.5
  0
LTYPE
  2
DASHED3
 70
    64
  3
------  ------  ------  ------  
 72
    65
 73
     2
 40
5.0
 49
3.75
 49
-1.25
  0
LTYPE
  2
CENTER1
 70
    64
  3
----- - ----- - ----- - ----- - 
 72
    65
 73
     4
 40
10.0
 49
6.25
 49
-1.25
 49
1.25
 49
-1.25
  0
LTYPE
  2
CENTER2
 70
    64
  3
----------  --  ----------  --  
 72
    65
 73
     4
 40
20.0
 49
12.5
 49
-2.5
 49
2.5
 49
-2.5
  0
LTYPE
  2
PHANTOM1
 70
    64
  3
--- - - --- - - --- - - --- - - 
 72
    65
 73
     6
 40
10.0
 49
3.25
 49
-1.25
 49
1.25
 49
-1.25
 49
1.25
 49
-1.25
  0
LTYPE
  2
PHANTOM2
 70
    64
  3
--------  -  -  --------  -  -  
 72
    65
 73
     6
 40
20.0
 49
10.0
 49
-2.5
 49
1.25
 49
-2.5
 49
1.25
 49
-2.5
  0
LTYPE
  2
DOT
 70
    64
  3
-   -   -   -   -   -   -   -   
 72
    65
 73
     2
 40
2.5
 49
0.625
 49
-1.875
  0
LTYPE
  2
DUMMY
 70
    64
  3
ダミー
 72
    65
 73
     0
 40
0.0
  0
LTYPE
  2
RAND1
 70
    64
  3
ランダム線1
 72
    65
 73
     4
 40
10.0
 49
1.0
 49
-2.0
 49
3.0
 49
-4.0
  0
LTYPE
  2
RAND2
 70
    64
  3
ランダム線2
 72
    65
 73
     4
 40
14.0
 49
2.0
 49
-3.0
 49
4.0
 49
-5.0
  0
LTYPE
  2
RAND3
 70
    64
  3
ランダム線3
 72
    65
 73
     4
 40
18.0
 49
3.0
 49
-4.0
 49
5.0
 49
-6.0
  0
LTYPE
  2
RAND4
 70
    64
  3
ランダム線4
 72
    65
 73
     4
 40
22.0
 49
4.0
 49
-5.0
 49
6.0
 49
-7.0
  0
LTYPE
  2
RAND5
 70
    64
  3
ランダム線5
 72
    65
 73
     4
 40
26.0
 49
5.0
 49
-6.0
 49
7.0
 49
-8.0
  0
LTYPE
  2
LONG1
 70
    64
  3
----------  --  ----------  --  
 72
    65
 73
     4
 40
40.0
 49
32.5
 49
-2.5
 49
2.5
 49
-2.5
  0
LTYPE
  2
LONG2
 70
    64
  3
--------  -  -  --------  -  -  
 72
    65
 73
     6
 40
40.0
 49
30.0
 49
-2.5
 49
1.25
 49
-2.5
 49
1.25
 49
-2.5
  0
LTYPE
  2
LONG3
 70
    64
  3
+++++++++++++++..+++++++++++++++
 72
    65
 73
     2
 40
40.0
 49
37.5
 49
-2.5
  0
LTYPE
  2
LONG4
 70
    64
  3
+++++++++++++++..+++++++++++++++
 72
    65
 73
     2
 40
80.0
 49
75.0
 49
-5.0
  0
LTYPE
  2
LONG5
 70
    64
  3
----------  --  ----------  --  
 72
    65
 73
     4
 40
60.0
 49
37.5
 49
-7.5
 49
7.5
 49
-7.5
  0
LTYPE
  2
dashed
 70
   64
  3
-------   -------------   ------
 72
   65
 73
    2
 40
7.5
 49
6
 49
-1.5
  0
LTYPE
  2
dashed_spaced
 70
   64
  3
----        --------        ----
 72
   65
 73
    2
 40
12
 49
6
 49
-6
  0
LTYPE
  2
long_dashed_dotted
 70
   64
  3
------------- --- --------------
 72
   65
 73
    4
 40
15.25
 49
12
 49
-1.5
 49
0.25
 49
-1.5
  0
LTYPE
  2
long_dashed_double-dotted
 70
   64
  3
----------- --- --- ------------
 72
   65
 73
    6
 40
17
 49
12
 49
-1.5
 49
0.25
 49
-1.5
 49
0.25
 49
-1.5
  0
LTYPE
  2
long_dashed_triplicate-dotted
 70
   64
  3
--------- --- --- --- ----------
 72
   65
 73
    8
 40
18.75
 49
12
 49
-1.5
 49
0.25
 49
-1.5
 49
0.25
 49
-1.5
 49
0.25
 49
-1.5
  0
LTYPE
  2
dotted
 70
   64
  3
   -       -       -       -    
 72
   65
 73
    2
 40
1.75
 49
0.25
 49
-1.5
  0
LTYPE
  2
chain
 70
   64
  3
-------------- -- --------------
 72
   65
 73
    4
 40
18.5
 49
12
 49
-1.5
 49
3.5
 49
-1.5
  0
LTYPE
  2
chain_double_dash
 70
   64
  3
------------ -- -- -------------
 72
   65
 73
    6
 40
23.5
 49
12
 49
-1.5
 49
3.5
 49
-1.5
 49
3.5
 49
-1.5
  0
LTYPE
  2
dashed_dotted
 70
   64
  3
-----------     -     ----------
 72
   65
 73
    4
 40
9.25
 49
6
 49
-1.5
 49
0.25
 49
-1.5
  0
LTYPE
  2
double-dashed_dotted
 70
   64
  3
------   -----------   -   -----
 72
   65
 73
    6
 40
16.75
 49
6
 49
-1.5
 49
6
 49
-1.5
 49
0.25
 49
-1.5
  0
LTYPE
  2
dashed_double-dotted
 70
   64
  3
---------    -    -    ---------
 72
   65
 73
    6
 40
11
 49
6
 49
-1.5
 49
0.25
 49
-1.5
 49
0.25
 49
-1.5
  0
LTYPE
  2
double-dashed_double-dotted
 70
   64
  3
-----   ---------   -   -   ----
 72
   65
 73
    8
 40
18.5
 49
6
 49
-1.5
 49
6
 49
-1.5
 49
0.25
 49
-1.5
 49
0.25
 49
-1.5
  0
LTYPE
  2
dashed_triplicate-dotted
 70
   64
  3
-------    -    -    -    ------
 72
   65
 73
    8
 40
12.75
 49
6
 49
-1.5
 49
0.25
 49
-1.5
 49
0.25
 49
-1.5
 49
0.25
 49
-1.5
  0
LTYPE
  2
double-dashed_triplicate-dotted
 70
   64
  3
-----  ---------  -  -  -  -----
 72
   65
 73
   10
 40
20.25
 49
6
 49
-1.5
 49
6
 49
-1.5
 49
0.25
 49
-1.5
 49
0.25
 49
-1.5
 49
0.25
 49
-1.5
  0
LTYPE
  2
undefined
 70
   64
  3
--------------------------------
 72
   65
 73
    0
 40
0
  0
ENDTAB
  0
TABLE
  2
STYLE
  5
3
100
AcDbSymbolTable
 70
     1
  0
STYLE
  5
10
100
AcDbSymbolTableRecord
100
AcDbTextStyleTableRecord
  2
STANDARD
 70
     0
 40
0.0
 41
1.0
 50
0.0
 71
     0
 42
0.2
  3
txt
  4
bigfont.shx
  0
STYLE
  5
26
100
AcDbSymbolTableRecord
100
AcDbTextStyleTableRecord
  2
TATEGAKI
 70
    68
 40
0.0
 41
1.0
 50
0.0
 71
     0
 42
1.0
  3
txt
  4
bigfont.shx
  0
ENDTAB
  0
TABLE
  2
LAYER
 70
    4
  0
LAYER
  2
_0-0_0
 70
   64
 62
    7
  6
CONTINUOUS
  0
LAYER
  2
_0-2_用紙枠
 70
   64
 62
    7
  6
CONTINUOUS
  0
LAYER
  2
_0-3_図面枠
 70
   64
 62
    7
  6
CONTINUOUS
  0
LAYER
  2
ADD_LINE
 70
   64
 62
    7
  6
CONTINUOUS
  0
ENDTAB
  0
ENDSEC
  0
SECTION
  2
BLOCKS
  0
ENDSEC
  0
SECTION
  2
ENTITIES
  0
LINE
  8
_0-3_図面枠
  6
CONTINUOUS
 62
    7
 10
5742.5
 20
3789.2775151048445
 11
402.5
 21
3789.2775151048445
  0
TEXT
  8
_0-3_図面枠
 62
    7
 10
502.5
 20
3839.2775151048445
 40
100
 41
1
 50
0
  1
太陽電池モジュール　SPR-250NE-WHT-J
  0
LINE
  8
_0-0_0
  6
CONTINUOUS
 62
    7
 10
2689.9662797050978
 20
2394.888751933318
 11
2689.9662797050978
 21
1596.888751933318
  0
LINE
  8
_0-0_0
  6
CONTINUOUS
 62
    7
 10
2689.9662797050978
 20
1596.888751933318
 11
2643.9662797050978
 21
1596.888751933318
  0
LINE
  8
_0-0_0
  6
CONTINUOUS
 62
    7
 10
2643.9662797050978
 20
1596.888751933318
 11
2643.9662797050978
 21
2394.888751933318
  0
LINE
  8
_0-0_0
  6
CONTINUOUS
 62
    7
 10
2643.9662797050978
 20
2394.888751933318
 11
2689.9662797050978
 21
2394.888751933318
  0
LINE
  8
_0-0_0
  6
CONTINUOUS
 62
    7
 10
2343.9662797050978
 20
1596.888751933318
 11
784.96627970509792
 21
1596.888751933318
  0
LINE
  8
_0-0_0
  6
CONTINUOUS
 62
    7
 10
784.96627970509792
 20
1596.888751933318
 11
784.96627970509792
 21
2394.8887631715261
  0
LINE
  8
_0-0_0
  6
CONTINUOUS
 62
    7
 10
784.96627970509792
 20
2394.8887631715261
 11
2343.9662797050978
 21
2394.8887631715261
  0
LINE
  8
_0-0_0
  6
CONTINUOUS
 62
    7
 10
2343.9662797050978
 20
2394.8887631715261
 11
2343.9662797050978
 21
1596.888751933318
  0
LINE
  8
_0-0_0
  6
CONTINUOUS
 62
    7
 10
792.22622196085558
 20
1604.0652704725651
 11
792.22622196085558
 21
2387.7122446322792
  0
LINE
  8
_0-0_0
  6
CONTINUOUS
 62
    7
 10
792.22622196085558
 20
2387.7122446322792
 11
2336.7244873049808
 21
2387.7122446322792
  0
LINE
  8
_0-0_0
  6
CONTINUOUS
 62
    7
 10
2336.7244873049808
 20
2387.7122446322792
 11
2336.7244873049808
 21
1604.0652704725651
  0
LINE
  8
_0-0_0
  6
CONTINUOUS
 62
    7
 10
2336.7244873049808
 20
1604.0652704725651
 11
792.22622196085558
 21
1604.0652704725651
  0
LINE
  8
_0-0_0
  6
CONTINUOUS
 62
    7
 10
926.78925167120178
 20
2363.315687889567
 11
926.78925167120178
 21
2269.5340976317598
  0
LINE
  8
_0-0_0
  6
CONTINUOUS
 62
    7
 10
926.78925167120178
 20
2269.5340976317598
 11
909.14759198972945
 21
2252.3320908819128
  0
LINE
  8
_0-0_0
  6
CONTINUOUS
 62
    7
 10
909.14759198972945
 20
2252.3320908819128
 11
816.54702851762613
 21
2252.3320908819128
  0
LINE
  8
_0-0_0
  6
CONTINUOUS
 62
    7
 10
816.54702851762613
 20
2252.3320908819128
 11
799.19576652637625
 21
2269.5340976317598
  0
LINE
  8
_0-0_0
  6
CONTINUOUS
 62
    7
 10
799.19576652637625
 20
2269.5340976317598
 11
799.19576652637625
 21
2363.315687889567
  0
LINE
  8
_0-0_0
  6
CONTINUOUS
 62
    7
 10
799.19576652637625
 20
2363.315687889567
 11
816.54702851762613
 21
2380.5357260930318
  0
LINE
  8
_0-0_0
  6
CONTINUOUS
 62
    7
 10
816.54702851762613
 20
2380.5357260930318
 11
909.14759198972945
 21
2380.5357260930318
  0
LINE
  8
_0-0_0
  6
CONTINUOUS
 62
    7
 10
909.14759198972945
 20
2380.5357260930318
 11
926.78925167120178
 21
2363.315687889567
  0
LINE
  8
_0-0_0
  6
CONTINUOUS
 62
    7
 10
1054.3101373934751
 20
2363.315687889567
 11
1054.3101373934751
 21
2269.5340976317598
  0
LINE
  8
_0-0_0
  6
CONTINUOUS
 62
    7
 10
1054.3101373934751
 20
2269.5340976317598
 11
1036.6503278563609
 21
2252.3320908819128
  0
LINE
  8
_0-0_0
  6
CONTINUOUS
 62
    7
 10
1036.6503278563609
 20
2252.3320908819128
 11
944.06791423988489
 21
2252.3320908819128
  0
LINE
  8
_0-0_0
  6
CONTINUOUS
 62
    7
 10
944.06791423988489
 20
2252.3320908819128
 11
926.69850239300808
 21
2269.5340976317598
  0
LINE
  8
_0-0_0
  6
CONTINUOUS
 62
    7
 10
926.69850239300808
 20
2269.5340976317598
 11
926.69850239300808
 21
2363.315687889567
  0
LINE
  8
_0-0_0
  6
CONTINUOUS
 62
    7
 10
926.69850239300808
 20
2363.315687889567
 11
944.06791423988489
 21
2380.5357260930318
  0
LINE
  8
_0-0_0
  6
CONTINUOUS
 62
    7
 10
944.06791423988489
 20
2380.5357260930318
 11
1036.6503278563609
 21
2380.5357260930318
  0
LINE
  8
_0-0_0
  6
CONTINUOUS
 62
    7
 10
1036.6503278563609
 20
2380.5357260930318
 11
1054.3101373934751
 21
2363.315687889567
  0
LINE
  8
_0-0_0
  6
CONTINUOUS
 62
    7
 10
1181.794723404465
 20
2363.315687889567
 11
1181.794723404465
 21
2269.5340976317598
  0
LINE
  8
_0-0_0
  6
CONTINUOUS
 62
    7
 10
1181.794723404465
 20
2269.5340976317598
 11
1164.153063722978
 21
2252.3320908819128
  0
LINE
  8
_0-0_0
  6
CONTINUOUS
 62
    7
 10
1164.153063722978
 20
2252.3320908819128
 11
1071.570650106516
 21
2252.3320908819128
  0
LINE
  8
_0-0_0
  6
CONTINUOUS
 62
    7
 10
1071.570650106516
 20
2252.3320908819128
 11
1054.2375379709079
 21
2269.5340976317598
  0
LINE
  8
_0-0_0
  6
CONTINUOUS
 62
    7
 10
1054.2375379709079
 20
2269.5340976317598
 11
1054.2375379709079
 21
2363.315687889567
  0
LINE
  8
_0-0_0
  6
CONTINUOUS
 62
    7
 10
1054.2375379709079
 20
2363.315687889567
 11
1071.570650106516
 21
2380.5357260930318
  0
LINE
  8
_0-0_0
  6
CONTINUOUS
 62
    7
 10
1071.570650106516
 20
2380.5357260930318
 11
1164.153063722978
 21
2380.5357260930318
  0
LINE
  8
_0-0_0
  6
CONTINUOUS
 62
    7
 10
1164.153063722978
 20
2380.5357260930318
 11
1181.794723404465
 21
2363.315687889567
  0
LINE
  8
_0-0_0
  6
CONTINUOUS
 62
    7
 10
1309.3156091267228
 20
2363.315687889567
 11
1309.3156091267228
 21
2269.5340976317598
  0
LINE
  8
_0-0_0
  6
CONTINUOUS
 62
    7
 10
1309.3156091267228
 20
2269.5340976317598
 11
1291.7102491565338
 21
2252.3320908819128
  0
LINE
  8
_0-0_0
  6
CONTINUOUS
 62
    7
 10
1291.7102491565338
 20
2252.3320908819128
 11
1199.0733859731481
 21
2252.3320908819128
  0
LINE
  8
_0-0_0
  6
CONTINUOUS
 62
    7
 10
1199.0733859731481
 20
2252.3320908819128
 11
1181.7584236931812
 21
2269.5340976317598
  0
LINE
  8
_0-0_0
  6
CONTINUOUS
 62
    7
 10
1181.7584236931812
 20
2269.5340976317598
 11
1181.7584236931812
 21
2363.315687889567
  0
LINE
  8
_0-0_0
  6
CONTINUOUS
 62
    7
 10
1181.7584236931812
 20
2363.315687889567
 11
1199.0733859731481
 21
2380.5357260930318
  0
LINE
  8
_0-0_0
  6
CONTINUOUS
 62
    7
 10
1199.0733859731481
 20
2380.5357260930318
 11
1291.7102491565338
 21
2380.5357260930318
  0
LINE
  8
_0-0_0
  6
CONTINUOUS
 62
    7
 10
1291.7102491565338
 20
2380.5357260930318
 11
1309.3156091267228
 21
2363.315687889567
  0
LINE
  8
_0-0_0
  6
CONTINUOUS
 62
    7
 10
1436.854644704624
 20
2363.315687889567
 11
1436.854644704624
 21
2269.5340976317598
  0
LINE
  8
_0-0_0
  6
CONTINUOUS
 62
    7
 10
1436.854644704624
 20
2269.5340976317598
 11
1419.1948351675101
 21
2252.3320908819128
  0
LINE
  8
_0-0_0
  6
CONTINUOUS
 62
    7
 10
1419.1948351675101
 20
2252.3320908819128
 11
1326.576121839779
 21
2252.3320908819128
  0
LINE
  8
_0-0_0
  6
CONTINUOUS
 62
    7
 10
1326.576121839779
 20
2252.3320908819128
 11
1309.2611595597982
 21
2269.5340976317598
  0
LINE
  8
_0-0_0
  6
CONTINUOUS
 62
    7
 10
1309.2611595597982
 20
2269.5340976317598
 11
1309.2611595597982
 21
2363.315687889567
  0
LINE
  8
_0-0_0
  6
CONTINUOUS
 62
    7
 10
1309.2611595597982
 20
2363.315687889567
 11
1326.576121839779
 21
2380.5357260930318
  0
LINE
  8
_0-0_0
  6
CONTINUOUS
 62
    7
 10
1326.576121839779
 20
2380.5357260930318
 11
1419.1948351675101
 21
2380.5357260930318
  0
LINE
  8
_0-0_0
  6
CONTINUOUS
 62
    7
 10
1419.1948351675101
 20
2380.5357260930318
 11
1436.854644704624
 21
2363.315687889567
  0
LINE
  8
_0-0_0
  6
CONTINUOUS
 62
    7
 10
1564.321080859987
 20
2363.315687889567
 11
1564.321080859987
 21
2269.5340976317598
  0
LINE
  8
_0-0_0
  6
CONTINUOUS
 62
    7
 10
1564.321080859987
 20
2269.5340976317598
 11
1546.6794211785141
 21
2252.3320908819128
  0
LINE
  8
_0-0_0
  6
CONTINUOUS
 62
    7
 10
1546.6794211785141
 20
2252.3320908819128
 11
1454.1151574176799
 21
2252.3320908819128
  0
LINE
  8
_0-0_0
  6
CONTINUOUS
 62
    7
 10
1454.1151574176799
 20
2252.3320908819128
 11
1436.7638954264439
 21
2269.5340976317598
  0
LINE
  8
_0-0_0
  6
CONTINUOUS
 62
    7
 10
1436.7638954264439
 20
2269.5340976317598
 11
1436.7638954264439
 21
2363.315687889567
  0
LINE
  8
_0-0_0
  6
CONTINUOUS
 62
    7
 10
1436.7638954264439
 20
2363.315687889567
 11
1454.1151574176799
 21
2380.5357260930318
  0
LINE
  8
_0-0_0
  6
CONTINUOUS
 62
    7
 10
1454.1151574176799
 20
2380.5357260930318
 11
1546.6794211785141
 21
2380.5357260930318
  0
LINE
  8
_0-0_0
  6
CONTINUOUS
 62
    7
 10
1546.6794211785141
 20
2380.5357260930318
 11
1564.321080859987
 21
2363.315687889567
  0
LINE
  8
_0-0_0
  6
CONTINUOUS
 62
    7
 10
1691.878266293528
 20
2363.315687889567
 11
1691.878266293528
 21
2269.5340976317598
  0
LINE
  8
_0-0_0
  6
CONTINUOUS
 62
    7
 10
1691.878266293528
 20
2269.5340976317598
 11
1674.2366066120558
 21
2252.3320908819128
  0
LINE
  8
_0-0_0
  6
CONTINUOUS
 62
    7
 10
1674.2366066120558
 20
2252.3320908819128
 11
1581.636043139953
 21
2252.3320908819128
  0
LINE
  8
_0-0_0
  6
CONTINUOUS
 62
    7
 10
1581.636043139953
 20
2252.3320908819128
 11
1564.2847811487031
 21
2269.5340976317598
  0
LINE
  8
_0-0_0
  6
CONTINUOUS
 62
    7
 10
1564.2847811487031
 20
2269.5340976317598
 11
1564.2847811487031
 21
2363.315687889567
  0
LINE
  8
_0-0_0
  6
CONTINUOUS
 62
    7
 10
1564.2847811487031
 20
2363.315687889567
 11
1581.636043139953
 21
2380.5357260930318
  0
LINE
  8
_0-0_0
  6
CONTINUOUS
 62
    7
 10
1581.636043139953
 20
2380.5357260930318
 11
1674.2366066120558
 21
2380.5357260930318
  0
LINE
  8
_0-0_0
  6
CONTINUOUS
 62
    7
 10
1674.2366066120558
 20
2380.5357260930318
 11
1691.878266293528
 21
2363.315687889567
  0
LINE
  8
_0-0_0
  6
CONTINUOUS
 62
    7
 10
1819.399152015802
 20
2363.315687889567
 11
1819.399152015802
 21
2269.5340976317598
  0
LINE
  8
_0-0_0
  6
CONTINUOUS
 62
    7
 10
1819.399152015802
 20
2269.5340976317598
 11
1801.7393424786869
 21
2252.3320908819128
  0
LINE
  8
_0-0_0
  6
CONTINUOUS
 62
    7
 10
1801.7393424786869
 20
2252.3320908819128
 11
1709.1387790065701
 21
2252.3320908819128
  0
LINE
  8
_0-0_0
  6
CONTINUOUS
 62
    7
 10
1709.1387790065701
 20
2252.3320908819128
 11
1691.7875170153347
 21
2269.5340976317598
  0
LINE
  8
_0-0_0
  6
CONTINUOUS
 62
    7
 10
1691.7875170153347
 20
2269.5340976317598
 11
1691.7875170153347
 21
2363.315687889567
  0
LINE
  8
_0-0_0
  6
CONTINUOUS
 62
    7
 10
1691.7875170153347
 20
2363.315687889567
 11
1709.1387790065701
 21
2380.5357260930318
  0
LINE
  8
_0-0_0
  6
CONTINUOUS
 62
    7
 10
1709.1387790065701
 20
2380.5357260930318
 11
1801.7393424786869
 21
2380.5357260930318
  0
LINE
  8
_0-0_0
  6
CONTINUOUS
 62
    7
 10
1801.7393424786869
 20
2380.5357260930318
 11
1819.399152015802
 21
2363.315687889567
  0
LINE
  8
_0-0_0
  6
CONTINUOUS
 62
    7
 10
1946.883738026791
 20
2363.315687889567
 11
1946.883738026791
 21
2269.5340976317598
  0
LINE
  8
_0-0_0
  6
CONTINUOUS
 62
    7
 10
1946.883738026791
 20
2269.5340976317598
 11
1929.242078345304
 21
2252.3320908819128
  0
LINE
  8
_0-0_0
  6
CONTINUOUS
 62
    7
 10
1929.242078345304
 20
2252.3320908819128
 11
1836.6415148732158
 21
2252.3320908819128
  0
LINE
  8
_0-0_0
  6
CONTINUOUS
 62
    7
 10
1836.6415148732158
 20
2252.3320908819128
 11
1819.326552593235
 21
2269.5340976317598
  0
LINE
  8
_0-0_0
  6
CONTINUOUS
 62
    7
 10
1819.326552593235
 20
2269.5340976317598
 11
1819.326552593235
 21
2363.315687889567
  0
LINE
  8
_0-0_0
  6
CONTINUOUS
 62
    7
 10
1819.326552593235
 20
2363.315687889567
 11
1836.6415148732158
 21
2380.5357260930318
  0
LINE
  8
_0-0_0
  6
CONTINUOUS
 62
    7
 10
1836.6415148732158
 20
2380.5357260930318
 11
1929.242078345304
 21
2380.5357260930318
  0
LINE
  8
_0-0_0
  6
CONTINUOUS
 62
    7
 10
1929.242078345304
 20
2380.5357260930318
 11
1946.883738026791
 21
2363.315687889567
  0
LINE
  8
_0-0_0
  6
CONTINUOUS
 62
    7
 10
2074.4046237490502
 20
2363.315687889567
 11
2074.4046237490502
 21
2269.5340976317598
  0
LINE
  8
_0-0_0
  6
CONTINUOUS
 62
    7
 10
2074.4046237490502
 20
2269.5340976317598
 11
2056.7629640675782
 21
2252.3320908819128
  0
LINE
  8
_0-0_0
  6
CONTINUOUS
 62
    7
 10
2056.7629640675782
 20
2252.3320908819128
 11
1964.162400595475
 21
2252.3320908819128
  0
LINE
  8
_0-0_0
  6
CONTINUOUS
 62
    7
 10
1964.162400595475
 20
2252.3320908819128
 11
1946.847438315508
 21
2269.5340976317598
  0
LINE
  8
_0-0_0
  6
CONTINUOUS
 62
    7
 10
1946.847438315508
 20
2269.5340976317598
 11
1946.847438315508
 21
2363.315687889567
  0
LINE
  8
_0-0_0
  6
CONTINUOUS
 62
    7
 10
1946.847438315508
 20
2363.315687889567
 11
1964.162400595475
 21
2380.5357260930318
  0
LINE
  8
_0-0_0
  6
CONTINUOUS
 62
    7
 10
1964.162400595475
 20
2380.5357260930318
 11
2056.7629640675782
 21
2380.5357260930318
  0
LINE
  8
_0-0_0
  6
CONTINUOUS
 62
    7
 10
2056.7629640675782
 20
2380.5357260930318
 11
2074.4046237490502
 21
2363.315687889567
  0
LINE
  8
_0-0_0
  6
CONTINUOUS
 62
    7
 10
2201.925509471308
 20
2363.315687889567
 11
2201.925509471308
 21
2269.5340976317598
  0
LINE
  8
_0-0_0
  6
CONTINUOUS
 62
    7
 10
2201.925509471308
 20
2269.5340976317598
 11
2184.283849789836
 21
2252.3320908819128
  0
LINE
  8
_0-0_0
  6
CONTINUOUS
 62
    7
 10
2184.283849789836
 20
2252.3320908819128
 11
2091.6651364621061
 21
2252.3320908819128
  0
LINE
  8
_0-0_0
  6
CONTINUOUS
 62
    7
 10
2091.6651364621061
 20
2252.3320908819128
 11
2074.3501741821392
 21
2269.5340976317598
  0
LINE
  8
_0-0_0
  6
CONTINUOUS
 62
    7
 10
2074.3501741821392
 20
2269.5340976317598
 11
2074.3501741821392
 21
2363.315687889567
  0
LINE
  8
_0-0_0
  6
CONTINUOUS
 62
    7
 10
2074.3501741821392
 20
2363.315687889567
 11
2091.6651364621061
 21
2380.5357260930318
  0
LINE
  8
_0-0_0
  6
CONTINUOUS
 62
    7
 10
2091.6651364621061
 20
2380.5357260930318
 11
2184.283849789836
 21
2380.5357260930318
  0
LINE
  8
_0-0_0
  6
CONTINUOUS
 62
    7
 10
2184.283849789836
 20
2380.5357260930318
 11
2201.925509471308
 21
2363.315687889567
  0
LINE
  8
_0-0_0
  6
CONTINUOUS
 62
    7
 10
2329.4463951935959
 20
2363.315687889567
 11
2329.4463951935959
 21
2269.5340976317598
  0
LINE
  8
_0-0_0
  6
CONTINUOUS
 62
    7
 10
2329.4463951935959
 20
2269.5340976317598
 11
2311.768435800841
 21
2252.3320908819128
  0
LINE
  8
_0-0_0
  6
CONTINUOUS
 62
    7
 10
2311.768435800841
 20
2252.3320908819128
 11
2219.2041720400061
 21
2252.3320908819128
  0
LINE
  8
_0-0_0
  6
CONTINUOUS
 62
    7
 10
2219.2041720400061
 20
2252.3320908819128
 11
2201.8529100487708
 21
2269.5340976317598
  0
LINE
  8
_0-0_0
  6
CONTINUOUS
 62
    7
 10
2201.8529100487708
 20
2269.5340976317598
 11
2201.8529100487708
 21
2363.315687889567
  0
LINE
  8
_0-0_0
  6
CONTINUOUS
 62
    7
 10
2201.8529100487708
 20
2363.315687889567
 11
2219.2041720400061
 21
2380.5357260930318
  0
LINE
  8
_0-0_0
  6
CONTINUOUS
 62
    7
 10
2219.2041720400061
 20
2380.5357260930318
 11
2311.768435800841
 21
2380.5357260930318
  0
LINE
  8
_0-0_0
  6
CONTINUOUS
 62
    7
 10
2311.768435800841
 20
2380.5357260930318
 11
2329.4463951935959
 21
2363.315687889567
  0
LINE
  8
_0-0_0
  6
CONTINUOUS
 62
    7
 10
926.78925167120178
 20
2235.1120526784471
 11
926.78925167120178
 21
2141.3304624206262
  0
LINE
  8
_0-0_0
  6
CONTINUOUS
 62
    7
 10
926.78925167120178
 20
2141.3304624206262
 11
909.14759198972945
 21
2124.1284556707792
  0
LINE
  8
_0-0_0
  6
CONTINUOUS
 62
    7
 10
909.14759198972945
 20
2124.1284556707792
 11
816.54702851762613
 21
2124.1284556707792
  0
LINE
  8
_0-0_0
  6
CONTINUOUS
 62
    7
 10
816.54702851762613
 20
2124.1284556707792
 11
799.19576652637625
 21
2141.3304624206262
  0
LINE
  8
_0-0_0
  6
CONTINUOUS
 62
    7
 10
799.19576652637625
 20
2141.3304624206262
 11
799.19576652637625
 21
2235.1120526784471
  0
LINE
  8
_0-0_0
  6
CONTINUOUS
 62
    7
 10
799.19576652637625
 20
2235.1120526784471
 11
816.54702851762613
 21
2252.3320908819128
  0
LINE
  8
_0-0_0
  6
CONTINUOUS
 62
    7
 10
816.54702851762613
 20
2252.3320908819128
 11
909.14759198972945
 21
2252.3320908819128
  0
LINE
  8
_0-0_0
  6
CONTINUOUS
 62
    7
 10
909.14759198972945
 20
2252.3320908819128
 11
926.78925167120178
 21
2235.1120526784471
  0
LINE
  8
_0-0_0
  6
CONTINUOUS
 62
    7
 10
1054.3101373934751
 20
2235.1120526784471
 11
1054.3101373934751
 21
2141.3304624206262
  0
LINE
  8
_0-0_0
  6
CONTINUOUS
 62
    7
 10
1054.3101373934751
 20
2141.3304624206262
 11
1036.6503278563609
 21
2124.1284556707792
  0
LINE
  8
_0-0_0
  6
CONTINUOUS
 62
    7
 10
1036.6503278563609
 20
2124.1284556707792
 11
944.06791423988489
 21
2124.1284556707792
  0
LINE
  8
_0-0_0
  6
CONTINUOUS
 62
    7
 10
944.06791423988489
 20
2124.1284556707792
 11
926.69850239300808
 21
2141.3304624206262
  0
LINE
  8
_0-0_0
  6
CONTINUOUS
 62
    7
 10
926.69850239300808
 20
2141.3304624206262
 11
926.69850239300808
 21
2235.1120526784471
  0
LINE
  8
_0-0_0
  6
CONTINUOUS
 62
    7
 10
926.69850239300808
 20
2235.1120526784471
 11
944.06791423988489
 21
2252.3320908819128
  0
LINE
  8
_0-0_0
  6
CONTINUOUS
 62
    7
 10
944.06791423988489
 20
2252.3320908819128
 11
1036.6503278563609
 21
2252.3320908819128
  0
LINE
  8
_0-0_0
  6
CONTINUOUS
 62
    7
 10
1036.6503278563609
 20
2252.3320908819128
 11
1054.3101373934751
 21
2235.1120526784471
  0
LINE
  8
_0-0_0
  6
CONTINUOUS
 62
    7
 10
1181.794723404465
 20
2235.1120526784471
 11
1181.794723404465
 21
2141.3304624206262
  0
LINE
  8
_0-0_0
  6
CONTINUOUS
 62
    7
 10
1181.794723404465
 20
2141.3304624206262
 11
1164.153063722978
 21
2124.1284556707792
  0
LINE
  8
_0-0_0
  6
CONTINUOUS
 62
    7
 10
1164.153063722978
 20
2124.1284556707792
 11
1071.570650106516
 21
2124.1284556707792
  0
LINE
  8
_0-0_0
  6
CONTINUOUS
 62
    7
 10
1071.570650106516
 20
2124.1284556707792
 11
1054.2375379709079
 21
2141.3304624206262
  0
LINE
  8
_0-0_0
  6
CONTINUOUS
 62
    7
 10
1054.2375379709079
 20
2141.3304624206262
 11
1054.2375379709079
 21
2235.1120526784471
  0
LINE
  8
_0-0_0
  6
CONTINUOUS
 62
    7
 10
1054.2375379709079
 20
2235.1120526784471
 11
1071.570650106516
 21
2252.3320908819128
  0
LINE
  8
_0-0_0
  6
CONTINUOUS
 62
    7
 10
1071.570650106516
 20
2252.3320908819128
 11
1164.153063722978
 21
2252.3320908819128
  0
LINE
  8
_0-0_0
  6
CONTINUOUS
 62
    7
 10
1164.153063722978
 20
2252.3320908819128
 11
1181.794723404465
 21
2235.1120526784471
  0
LINE
  8
_0-0_0
  6
CONTINUOUS
 62
    7
 10
1309.3156091267228
 20
2235.1120526784471
 11
1309.3156091267228
 21
2141.3304624206262
  0
LINE
  8
_0-0_0
  6
CONTINUOUS
 62
    7
 10
1309.3156091267228
 20
2141.3304624206262
 11
1291.7102491565338
 21
2124.1284556707792
  0
LINE
  8
_0-0_0
  6
CONTINUOUS
 62
    7
 10
1291.7102491565338
 20
2124.1284556707792
 11
1199.0733859731481
 21
2124.1284556707792
  0
LINE
  8
_0-0_0
  6
CONTINUOUS
 62
    7
 10
1199.0733859731481
 20
2124.1284556707792
 11
1181.7584236931812
 21
2141.3304624206262
  0
LINE
  8
_0-0_0
  6
CONTINUOUS
 62
    7
 10
1181.7584236931812
 20
2141.3304624206262
 11
1181.7584236931812
 21
2235.1120526784471
  0
LINE
  8
_0-0_0
  6
CONTINUOUS
 62
    7
 10
1181.7584236931812
 20
2235.1120526784471
 11
1199.0733859731481
 21
2252.3320908819128
  0
LINE
  8
_0-0_0
  6
CONTINUOUS
 62
    7
 10
1199.0733859731481
 20
2252.3320908819128
 11
1291.7102491565338
 21
2252.3320908819128
  0
LINE
  8
_0-0_0
  6
CONTINUOUS
 62
    7
 10
1291.7102491565338
 20
2252.3320908819128
 11
1309.3156091267228
 21
2235.1120526784471
  0
LINE
  8
_0-0_0
  6
CONTINUOUS
 62
    7
 10
1436.854644704624
 20
2235.1120526784471
 11
1436.854644704624
 21
2141.3304624206262
  0
LINE
  8
_0-0_0
  6
CONTINUOUS
 62
    7
 10
1436.854644704624
 20
2141.3304624206262
 11
1419.1948351675101
 21
2124.1284556707792
  0
LINE
  8
_0-0_0
  6
CONTINUOUS
 62
    7
 10
1419.1948351675101
 20
2124.1284556707792
 11
1326.576121839779
 21
2124.1284556707792
  0
LINE
  8
_0-0_0
  6
CONTINUOUS
 62
    7
 10
1326.576121839779
 20
2124.1284556707792
 11
1309.2611595597982
 21
2141.3304624206262
  0
LINE
  8
_0-0_0
  6
CONTINUOUS
 62
    7
 10
1309.2611595597982
 20
2141.3304624206262
 11
1309.2611595597982
 21
2235.1120526784471
  0
LINE
  8
_0-0_0
  6
CONTINUOUS
 62
    7
 10
1309.2611595597982
 20
2235.1120526784471
 11
1326.576121839779
 21
2252.3320908819128
  0
LINE
  8
_0-0_0
  6
CONTINUOUS
 62
    7
 10
1326.576121839779
 20
2252.3320908819128
 11
1419.1948351675101
 21
2252.3320908819128
  0
LINE
  8
_0-0_0
  6
CONTINUOUS
 62
    7
 10
1419.1948351675101
 20
2252.3320908819128
 11
1436.854644704624
 21
2235.1120526784471
  0
LINE
  8
_0-0_0
  6
CONTINUOUS
 62
    7
 10
1564.321080859987
 20
2235.1120526784471
 11
1564.321080859987
 21
2141.3304624206262
  0
LINE
  8
_0-0_0
  6
CONTINUOUS
 62
    7
 10
1564.321080859987
 20
2141.3304624206262
 11
1546.6794211785141
 21
2124.1284556707792
  0
LINE
  8
_0-0_0
  6
CONTINUOUS
 62
    7
 10
1546.6794211785141
 20
2124.1284556707792
 11
1454.1151574176799
 21
2124.1284556707792
  0
LINE
  8
_0-0_0
  6
CONTINUOUS
 62
    7
 10
1454.1151574176799
 20
2124.1284556707792
 11
1436.7638954264439
 21
2141.3304624206262
  0
LINE
  8
_0-0_0
  6
CONTINUOUS
 62
    7
 10
1436.7638954264439
 20
2141.3304624206262
 11
1436.7638954264439
 21
2235.1120526784471
  0
LINE
  8
_0-0_0
  6
CONTINUOUS
 62
    7
 10
1436.7638954264439
 20
2235.1120526784471
 11
1454.1151574176799
 21
2252.3320908819128
  0
LINE
  8
_0-0_0
  6
CONTINUOUS
 62
    7
 10
1454.1151574176799
 20
2252.3320908819128
 11
1546.6794211785141
 21
2252.3320908819128
  0
LINE
  8
_0-0_0
  6
CONTINUOUS
 62
    7
 10
1546.6794211785141
 20
2252.3320908819128
 11
1564.321080859987
 21
2235.1120526784471
  0
LINE
  8
_0-0_0
  6
CONTINUOUS
 62
    7
 10
1691.878266293528
 20
2235.1120526784471
 11
1691.878266293528
 21
2141.3304624206262
  0
LINE
  8
_0-0_0
  6
CONTINUOUS
 62
    7
 10
1691.878266293528
 20
2141.3304624206262
 11
1674.2366066120558
 21
2124.1284556707792
  0
LINE
  8
_0-0_0
  6
CONTINUOUS
 62
    7
 10
1674.2366066120558
 20
2124.1284556707792
 11
1581.636043139953
 21
2124.1284556707792
  0
LINE
  8
_0-0_0
  6
CONTINUOUS
 62
    7
 10
1581.636043139953
 20
2124.1284556707792
 11
1564.2847811487031
 21
2141.3304624206262
  0
LINE
  8
_0-0_0
  6
CONTINUOUS
 62
    7
 10
1564.2847811487031
 20
2141.3304624206262
 11
1564.2847811487031
 21
2235.1120526784471
  0
LINE
  8
_0-0_0
  6
CONTINUOUS
 62
    7
 10
1564.2847811487031
 20
2235.1120526784471
 11
1581.636043139953
 21
2252.3320908819128
  0
LINE
  8
_0-0_0
  6
CONTINUOUS
 62
    7
 10
1581.636043139953
 20
2252.3320908819128
 11
1674.2366066120558
 21
2252.3320908819128
  0
LINE
  8
_0-0_0
  6
CONTINUOUS
 62
    7
 10
1674.2366066120558
 20
2252.3320908819128
 11
1691.878266293528
 21
2235.1120526784471
  0
LINE
  8
_0-0_0
  6
CONTINUOUS
 62
    7
 10
1819.399152015802
 20
2235.1120526784471
 11
1819.399152015802
 21
2141.3304624206262
  0
LINE
  8
_0-0_0
  6
CONTINUOUS
 62
    7
 10
1819.399152015802
 20
2141.3304624206262
 11
1801.7393424786869
 21
2124.1284556707792
  0
LINE
  8
_0-0_0
  6
CONTINUOUS
 62
    7
 10
1801.7393424786869
 20
2124.1284556707792
 11
1709.1387790065701
 21
2124.1284556707792
  0
LINE
  8
_0-0_0
  6
CONTINUOUS
 62
    7
 10
1709.1387790065701
 20
2124.1284556707792
 11
1691.7875170153347
 21
2141.3304624206262
  0
LINE
  8
_0-0_0
  6
CONTINUOUS
 62
    7
 10
1691.7875170153347
 20
2141.3304624206262
 11
1691.7875170153347
 21
2235.1120526784471
  0
LINE
  8
_0-0_0
  6
CONTINUOUS
 62
    7
 10
1691.7875170153347
 20
2235.1120526784471
 11
1709.1387790065701
 21
2252.3320908819128
  0
LINE
  8
_0-0_0
  6
CONTINUOUS
 62
    7
 10
1709.1387790065701
 20
2252.3320908819128
 11
1801.7393424786869
 21
2252.3320908819128
  0
LINE
  8
_0-0_0
  6
CONTINUOUS
 62
    7
 10
1801.7393424786869
 20
2252.3320908819128
 11
1819.399152015802
 21
2235.1120526784471
  0
LINE
  8
_0-0_0
  6
CONTINUOUS
 62
    7
 10
1946.883738026791
 20
2235.1120526784471
 11
1946.883738026791
 21
2141.3304624206262
  0
LINE
  8
_0-0_0
  6
CONTINUOUS
 62
    7
 10
1946.883738026791
 20
2141.3304624206262
 11
1929.242078345304
 21
2124.1284556707792
  0
LINE
  8
_0-0_0
  6
CONTINUOUS
 62
    7
 10
1929.242078345304
 20
2124.1284556707792
 11
1836.6415148732158
 21
2124.1284556707792
  0
LINE
  8
_0-0_0
  6
CONTINUOUS
 62
    7
 10
1836.6415148732158
 20
2124.1284556707792
 11
1819.326552593235
 21
2141.3304624206262
  0
LINE
  8
_0-0_0
  6
CONTINUOUS
 62
    7
 10
1819.326552593235
 20
2141.3304624206262
 11
1819.326552593235
 21
2235.1120526784471
  0
LINE
  8
_0-0_0
  6
CONTINUOUS
 62
    7
 10
1819.326552593235
 20
2235.1120526784471
 11
1836.6415148732158
 21
2252.3320908819128
  0
LINE
  8
_0-0_0
  6
CONTINUOUS
 62
    7
 10
1836.6415148732158
 20
2252.3320908819128
 11
1929.242078345304
 21
2252.3320908819128
  0
LINE
  8
_0-0_0
  6
CONTINUOUS
 62
    7
 10
1929.242078345304
 20
2252.3320908819128
 11
1946.883738026791
 21
2235.1120526784471
  0
LINE
  8
_0-0_0
  6
CONTINUOUS
 62
    7
 10
2074.4046237490502
 20
2235.1120526784471
 11
2074.4046237490502
 21
2141.3304624206262
  0
LINE
  8
_0-0_0
  6
CONTINUOUS
 62
    7
 10
2074.4046237490502
 20
2141.3304624206262
 11
2056.7629640675782
 21
2124.1284556707792
  0
LINE
  8
_0-0_0
  6
CONTINUOUS
 62
    7
 10
2056.7629640675782
 20
2124.1284556707792
 11
1964.162400595475
 21
2124.1284556707792
  0
LINE
  8
_0-0_0
  6
CONTINUOUS
 62
    7
 10
1964.162400595475
 20
2124.1284556707792
 11
1946.847438315508
 21
2141.3304624206262
  0
LINE
  8
_0-0_0
  6
CONTINUOUS
 62
    7
 10
1946.847438315508
 20
2141.3304624206262
 11
1946.847438315508
 21
2235.1120526784471
  0
LINE
  8
_0-0_0
  6
CONTINUOUS
 62
    7
 10
1946.847438315508
 20
2235.1120526784471
 11
1964.162400595475
 21
2252.3320908819128
  0
LINE
  8
_0-0_0
  6
CONTINUOUS
 62
    7
 10
1964.162400595475
 20
2252.3320908819128
 11
2056.7629640675782
 21
2252.3320908819128
  0
LINE
  8
_0-0_0
  6
CONTINUOUS
 62
    7
 10
2056.7629640675782
 20
2252.3320908819128
 11
2074.4046237490502
 21
2235.1120526784471
  0
LINE
  8
_0-0_0
  6
CONTINUOUS
 62
    7
 10
2201.925509471308
 20
2235.1120526784471
 11
2201.925509471308
 21
2141.3304624206262
  0
LINE
  8
_0-0_0
  6
CONTINUOUS
 62
    7
 10
2201.925509471308
 20
2141.3304624206262
 11
2184.283849789836
 21
2124.1284556707792
  0
LINE
  8
_0-0_0
  6
CONTINUOUS
 62
    7
 10
2184.283849789836
 20
2124.1284556707792
 11
2091.6651364621061
 21
2124.1284556707792
  0
LINE
  8
_0-0_0
  6
CONTINUOUS
 62
    7
 10
2091.6651364621061
 20
2124.1284556707792
 11
2074.3501741821392
 21
2141.3304624206262
  0
LINE
  8
_0-0_0
  6
CONTINUOUS
 62
    7
 10
2074.3501741821392
 20
2141.3304624206262
 11
2074.3501741821392
 21
2235.1120526784471
  0
LINE
  8
_0-0_0
  6
CONTINUOUS
 62
    7
 10
2074.3501741821392
 20
2235.1120526784471
 11
2091.6651364621061
 21
2252.3320908819128
  0
LINE
  8
_0-0_0
  6
CONTINUOUS
 62
    7
 10
2091.6651364621061
 20
2252.3320908819128
 11
2184.283849789836
 21
2252.3320908819128
  0
LINE
  8
_0-0_0
  6
CONTINUOUS
 62
    7
 10
2184.283849789836
 20
2252.3320908819128
 11
2201.925509471308
 21
2235.1120526784471
  0
LINE
  8
_0-0_0
  6
CONTINUOUS
 62
    7
 10
2329.4463951935959
 20
2235.1120526784471
 11
2329.4463951935959
 21
2141.3304624206262
  0
LINE
  8
_0-0_0
  6
CONTINUOUS
 62
    7
 10
2329.4463951935959
 20
2141.3304624206262
 11
2311.768435800841
 21
2124.1284556707792
  0
LINE
  8
_0-0_0
  6
CONTINUOUS
 62
    7
 10
2311.768435800841
 20
2124.1284556707792
 11
2219.2041720400061
 21
2124.1284556707792
  0
LINE
  8
_0-0_0
  6
CONTINUOUS
 62
    7
 10
2219.2041720400061
 20
2124.1284556707792
 11
2201.8529100487708
 21
2141.3304624206262
  0
LINE
  8
_0-0_0
  6
CONTINUOUS
 62
    7
 10
2201.8529100487708
 20
2141.3304624206262
 11
2201.8529100487708
 21
2235.1120526784471
  0
LINE
  8
_0-0_0
  6
CONTINUOUS
 62
    7
 10
2201.8529100487708
 20
2235.1120526784471
 11
2219.2041720400061
 21
2252.3320908819128
  0
LINE
  8
_0-0_0
  6
CONTINUOUS
 62
    7
 10
2219.2041720400061
 20
2252.3320908819128
 11
2311.768435800841
 21
2252.3320908819128
  0
LINE
  8
_0-0_0
  6
CONTINUOUS
 62
    7
 10
2311.768435800841
 20
2252.3320908819128
 11
2329.4463951935959
 21
2235.1120526784471
  0
LINE
  8
_0-0_0
  6
CONTINUOUS
 62
    7
 10
926.78925167120178
 20
2106.9264489209309
 11
926.78925167120178
 21
2013.1268272094919
  0
LINE
  8
_0-0_0
  6
CONTINUOUS
 62
    7
 10
926.78925167120178
 20
2013.1268272094919
 11
909.14759198972945
 21
1995.924820459659
  0
LINE
  8
_0-0_0
  6
CONTINUOUS
 62
    7
 10
909.14759198972945
 20
1995.924820459659
 11
816.54702851762613
 21
1995.924820459659
  0
LINE
  8
_0-0_0
  6
CONTINUOUS
 62
    7
 10
816.54702851762613
 20
1995.924820459659
 11
799.19576652637625
 21
2013.1268272094919
  0
LINE
  8
_0-0_0
  6
CONTINUOUS
 62
    7
 10
799.19576652637625
 20
2013.1268272094919
 11
799.19576652637625
 21
2106.9264489209309
  0
LINE
  8
_0-0_0
  6
CONTINUOUS
 62
    7
 10
799.19576652637625
 20
2106.9264489209309
 11
816.54702851762613
 21
2124.1284556707792
  0
LINE
  8
_0-0_0
  6
CONTINUOUS
 62
    7
 10
816.54702851762613
 20
2124.1284556707792
 11
909.14759198972945
 21
2124.1284556707792
  0
LINE
  8
_0-0_0
  6
CONTINUOUS
 62
    7
 10
909.14759198972945
 20
2124.1284556707792
 11
926.78925167120178
 21
2106.9264489209309
  0
LINE
  8
_0-0_0
  6
CONTINUOUS
 62
    7
 10
1054.3101373934751
 20
2106.9264489209309
 11
1054.3101373934751
 21
2013.1268272094919
  0
LINE
  8
_0-0_0
  6
CONTINUOUS
 62
    7
 10
1054.3101373934751
 20
2013.1268272094919
 11
1036.6503278563609
 21
1995.924820459659
  0
LINE
  8
_0-0_0
  6
CONTINUOUS
 62
    7
 10
1036.6503278563609
 20
1995.924820459659
 11
944.06791423988489
 21
1995.924820459659
  0
LINE
  8
_0-0_0
  6
CONTINUOUS
 62
    7
 10
944.06791423988489
 20
1995.924820459659
 11
926.69850239300808
 21
2013.1268272094919
  0
LINE
  8
_0-0_0
  6
CONTINUOUS
 62
    7
 10
926.69850239300808
 20
2013.1268272094919
 11
926.69850239300808
 21
2106.9264489209309
  0
LINE
  8
_0-0_0
  6
CONTINUOUS
 62
    7
 10
926.69850239300808
 20
2106.9264489209309
 11
944.06791423988489
 21
2124.1284556707792
  0
LINE
  8
_0-0_0
  6
CONTINUOUS
 62
    7
 10
944.06791423988489
 20
2124.1284556707792
 11
1036.6503278563609
 21
2124.1284556707792
  0
LINE
  8
_0-0_0
  6
CONTINUOUS
 62
    7
 10
1036.6503278563609
 20
2124.1284556707792
 11
1054.3101373934751
 21
2106.9264489209309
  0
LINE
  8
_0-0_0
  6
CONTINUOUS
 62
    7
 10
1181.794723404465
 20
2106.9264489209309
 11
1181.794723404465
 21
2013.1268272094919
  0
LINE
  8
_0-0_0
  6
CONTINUOUS
 62
    7
 10
1181.794723404465
 20
2013.1268272094919
 11
1164.153063722978
 21
1995.924820459659
  0
LINE
  8
_0-0_0
  6
CONTINUOUS
 62
    7
 10
1164.153063722978
 20
1995.924820459659
 11
1071.570650106516
 21
1995.924820459659
  0
LINE
  8
_0-0_0
  6
CONTINUOUS
 62
    7
 10
1071.570650106516
 20
1995.924820459659
 11
1054.2375379709079
 21
2013.1268272094919
  0
LINE
  8
_0-0_0
  6
CONTINUOUS
 62
    7
 10
1054.2375379709079
 20
2013.1268272094919
 11
1054.2375379709079
 21
2106.9264489209309
  0
LINE
  8
_0-0_0
  6
CONTINUOUS
 62
    7
 10
1054.2375379709079
 20
2106.9264489209309
 11
1071.570650106516
 21
2124.1284556707792
  0
LINE
  8
_0-0_0
  6
CONTINUOUS
 62
    7
 10
1071.570650106516
 20
2124.1284556707792
 11
1164.153063722978
 21
2124.1284556707792
  0
LINE
  8
_0-0_0
  6
CONTINUOUS
 62
    7
 10
1164.153063722978
 20
2124.1284556707792
 11
1181.794723404465
 21
2106.9264489209309
  0
LINE
  8
_0-0_0
  6
CONTINUOUS
 62
    7
 10
1309.3156091267228
 20
2106.9264489209309
 11
1309.3156091267228
 21
2013.1268272094919
  0
LINE
  8
_0-0_0
  6
CONTINUOUS
 62
    7
 10
1309.3156091267228
 20
2013.1268272094919
 11
1291.7102491565338
 21
1995.924820459659
  0
LINE
  8
_0-0_0
  6
CONTINUOUS
 62
    7
 10
1291.7102491565338
 20
1995.924820459659
 11
1199.0733859731481
 21
1995.924820459659
  0
LINE
  8
_0-0_0
  6
CONTINUOUS
 62
    7
 10
1199.0733859731481
 20
1995.924820459659
 11
1181.7584236931812
 21
2013.1268272094919
  0
LINE
  8
_0-0_0
  6
CONTINUOUS
 62
    7
 10
1181.7584236931812
 20
2013.1268272094919
 11
1181.7584236931812
 21
2106.9264489209309
  0
LINE
  8
_0-0_0
  6
CONTINUOUS
 62
    7
 10
1181.7584236931812
 20
2106.9264489209309
 11
1199.0733859731481
 21
2124.1284556707792
  0
LINE
  8
_0-0_0
  6
CONTINUOUS
 62
    7
 10
1199.0733859731481
 20
2124.1284556707792
 11
1291.7102491565338
 21
2124.1284556707792
  0
LINE
  8
_0-0_0
  6
CONTINUOUS
 62
    7
 10
1291.7102491565338
 20
2124.1284556707792
 11
1309.3156091267228
 21
2106.9264489209309
  0
LINE
  8
_0-0_0
  6
CONTINUOUS
 62
    7
 10
1436.854644704624
 20
2106.9264489209309
 11
1436.854644704624
 21
2013.1268272094919
  0
LINE
  8
_0-0_0
  6
CONTINUOUS
 62
    7
 10
1436.854644704624
 20
2013.1268272094919
 11
1419.1948351675101
 21
1995.924820459659
  0
LINE
  8
_0-0_0
  6
CONTINUOUS
 62
    7
 10
1419.1948351675101
 20
1995.924820459659
 11
1326.576121839779
 21
1995.924820459659
  0
LINE
  8
_0-0_0
  6
CONTINUOUS
 62
    7
 10
1326.576121839779
 20
1995.924820459659
 11
1309.2611595597982
 21
2013.1268272094919
  0
LINE
  8
_0-0_0
  6
CONTINUOUS
 62
    7
 10
1309.2611595597982
 20
2013.1268272094919
 11
1309.2611595597982
 21
2106.9264489209309
  0
LINE
  8
_0-0_0
  6
CONTINUOUS
 62
    7
 10
1309.2611595597982
 20
2106.9264489209309
 11
1326.576121839779
 21
2124.1284556707792
  0
LINE
  8
_0-0_0
  6
CONTINUOUS
 62
    7
 10
1326.576121839779
 20
2124.1284556707792
 11
1419.1948351675101
 21
2124.1284556707792
  0
LINE
  8
_0-0_0
  6
CONTINUOUS
 62
    7
 10
1419.1948351675101
 20
2124.1284556707792
 11
1436.854644704624
 21
2106.9264489209309
  0
LINE
  8
_0-0_0
  6
CONTINUOUS
 62
    7
 10
1564.321080859987
 20
2106.9264489209309
 11
1564.321080859987
 21
2013.1268272094919
  0
LINE
  8
_0-0_0
  6
CONTINUOUS
 62
    7
 10
1564.321080859987
 20
2013.1268272094919
 11
1546.6794211785141
 21
1995.924820459659
  0
LINE
  8
_0-0_0
  6
CONTINUOUS
 62
    7
 10
1546.6794211785141
 20
1995.924820459659
 11
1454.1151574176799
 21
1995.924820459659
  0
LINE
  8
_0-0_0
  6
CONTINUOUS
 62
    7
 10
1454.1151574176799
 20
1995.924820459659
 11
1436.7638954264439
 21
2013.1268272094919
  0
LINE
  8
_0-0_0
  6
CONTINUOUS
 62
    7
 10
1436.7638954264439
 20
2013.1268272094919
 11
1436.7638954264439
 21
2106.9264489209309
  0
LINE
  8
_0-0_0
  6
CONTINUOUS
 62
    7
 10
1436.7638954264439
 20
2106.9264489209309
 11
1454.1151574176799
 21
2124.1284556707792
  0
LINE
  8
_0-0_0
  6
CONTINUOUS
 62
    7
 10
1454.1151574176799
 20
2124.1284556707792
 11
1546.6794211785141
 21
2124.1284556707792
  0
LINE
  8
_0-0_0
  6
CONTINUOUS
 62
    7
 10
1546.6794211785141
 20
2124.1284556707792
 11
1564.321080859987
 21
2106.9264489209309
  0
LINE
  8
_0-0_0
  6
CONTINUOUS
 62
    7
 10
1691.878266293528
 20
2106.9264489209309
 11
1691.878266293528
 21
2013.1268272094919
  0
LINE
  8
_0-0_0
  6
CONTINUOUS
 62
    7
 10
1691.878266293528
 20
2013.1268272094919
 11
1674.2366066120558
 21
1995.924820459659
  0
LINE
  8
_0-0_0
  6
CONTINUOUS
 62
    7
 10
1674.2366066120558
 20
1995.924820459659
 11
1581.636043139953
 21
1995.924820459659
  0
LINE
  8
_0-0_0
  6
CONTINUOUS
 62
    7
 10
1581.636043139953
 20
1995.924820459659
 11
1564.2847811487031
 21
2013.1268272094919
  0
LINE
  8
_0-0_0
  6
CONTINUOUS
 62
    7
 10
1564.2847811487031
 20
2013.1268272094919
 11
1564.2847811487031
 21
2106.9264489209309
  0
LINE
  8
_0-0_0
  6
CONTINUOUS
 62
    7
 10
1564.2847811487031
 20
2106.9264489209309
 11
1581.636043139953
 21
2124.1284556707792
  0
LINE
  8
_0-0_0
  6
CONTINUOUS
 62
    7
 10
1581.636043139953
 20
2124.1284556707792
 11
1674.2366066120558
 21
2124.1284556707792
  0
LINE
  8
_0-0_0
  6
CONTINUOUS
 62
    7
 10
1674.2366066120558
 20
2124.1284556707792
 11
1691.878266293528
 21
2106.9264489209309
  0
LINE
  8
_0-0_0
  6
CONTINUOUS
 62
    7
 10
1819.399152015802
 20
2106.9264489209309
 11
1819.399152015802
 21
2013.1268272094919
  0
LINE
  8
_0-0_0
  6
CONTINUOUS
 62
    7
 10
1819.399152015802
 20
2013.1268272094919
 11
1801.7393424786869
 21
1995.924820459659
  0
LINE
  8
_0-0_0
  6
CONTINUOUS
 62
    7
 10
1801.7393424786869
 20
1995.924820459659
 11
1709.1387790065701
 21
1995.924820459659
  0
LINE
  8
_0-0_0
  6
CONTINUOUS
 62
    7
 10
1709.1387790065701
 20
1995.924820459659
 11
1691.7875170153347
 21
2013.1268272094919
  0
LINE
  8
_0-0_0
  6
CONTINUOUS
 62
    7
 10
1691.7875170153347
 20
2013.1268272094919
 11
1691.7875170153347
 21
2106.9264489209309
  0
LINE
  8
_0-0_0
  6
CONTINUOUS
 62
    7
 10
1691.7875170153347
 20
2106.9264489209309
 11
1709.1387790065701
 21
2124.1284556707792
  0
LINE
  8
_0-0_0
  6
CONTINUOUS
 62
    7
 10
1709.1387790065701
 20
2124.1284556707792
 11
1801.7393424786869
 21
2124.1284556707792
  0
LINE
  8
_0-0_0
  6
CONTINUOUS
 62
    7
 10
1801.7393424786869
 20
2124.1284556707792
 11
1819.399152015802
 21
2106.9264489209309
  0
LINE
  8
_0-0_0
  6
CONTINUOUS
 62
    7
 10
1946.883738026791
 20
2106.9264489209309
 11
1946.883738026791
 21
2013.1268272094919
  0
LINE
  8
_0-0_0
  6
CONTINUOUS
 62
    7
 10
1946.883738026791
 20
2013.1268272094919
 11
1929.242078345304
 21
1995.924820459659
  0
LINE
  8
_0-0_0
  6
CONTINUOUS
 62
    7
 10
1929.242078345304
 20
1995.924820459659
 11
1836.6415148732158
 21
1995.924820459659
  0
LINE
  8
_0-0_0
  6
CONTINUOUS
 62
    7
 10
1836.6415148732158
 20
1995.924820459659
 11
1819.326552593235
 21
2013.1268272094919
  0
LINE
  8
_0-0_0
  6
CONTINUOUS
 62
    7
 10
1819.326552593235
 20
2013.1268272094919
 11
1819.326552593235
 21
2106.9264489209309
  0
LINE
  8
_0-0_0
  6
CONTINUOUS
 62
    7
 10
1819.326552593235
 20
2106.9264489209309
 11
1836.6415148732158
 21
2124.1284556707792
  0
LINE
  8
_0-0_0
  6
CONTINUOUS
 62
    7
 10
1836.6415148732158
 20
2124.1284556707792
 11
1929.242078345304
 21
2124.1284556707792
  0
LINE
  8
_0-0_0
  6
CONTINUOUS
 62
    7
 10
1929.242078345304
 20
2124.1284556707792
 11
1946.883738026791
 21
2106.9264489209309
  0
LINE
  8
_0-0_0
  6
CONTINUOUS
 62
    7
 10
2074.4046237490502
 20
2106.9264489209309
 11
2074.4046237490502
 21
2013.1268272094919
  0
LINE
  8
_0-0_0
  6
CONTINUOUS
 62
    7
 10
2074.4046237490502
 20
2013.1268272094919
 11
2056.7629640675782
 21
1995.924820459659
  0
LINE
  8
_0-0_0
  6
CONTINUOUS
 62
    7
 10
2056.7629640675782
 20
1995.924820459659
 11
1964.162400595475
 21
1995.924820459659
  0
LINE
  8
_0-0_0
  6
CONTINUOUS
 62
    7
 10
1964.162400595475
 20
1995.924820459659
 11
1946.847438315508
 21
2013.1268272094919
  0
LINE
  8
_0-0_0
  6
CONTINUOUS
 62
    7
 10
1946.847438315508
 20
2013.1268272094919
 11
1946.847438315508
 21
2106.9264489209309
  0
LINE
  8
_0-0_0
  6
CONTINUOUS
 62
    7
 10
1946.847438315508
 20
2106.9264489209309
 11
1964.162400595475
 21
2124.1284556707792
  0
LINE
  8
_0-0_0
  6
CONTINUOUS
 62
    7
 10
1964.162400595475
 20
2124.1284556707792
 11
2056.7629640675782
 21
2124.1284556707792
  0
LINE
  8
_0-0_0
  6
CONTINUOUS
 62
    7
 10
2056.7629640675782
 20
2124.1284556707792
 11
2074.4046237490502
 21
2106.9264489209309
  0
LINE
  8
_0-0_0
  6
CONTINUOUS
 62
    7
 10
2201.925509471308
 20
2106.9264489209309
 11
2201.925509471308
 21
2013.1268272094919
  0
LINE
  8
_0-0_0
  6
CONTINUOUS
 62
    7
 10
2201.925509471308
 20
2013.1268272094919
 11
2184.283849789836
 21
1995.924820459659
  0
LINE
  8
_0-0_0
  6
CONTINUOUS
 62
    7
 10
2184.283849789836
 20
1995.924820459659
 11
2091.6651364621061
 21
1995.924820459659
  0
LINE
  8
_0-0_0
  6
CONTINUOUS
 62
    7
 10
2091.6651364621061
 20
1995.924820459659
 11
2074.3501741821392
 21
2013.1268272094919
  0
LINE
  8
_0-0_0
  6
CONTINUOUS
 62
    7
 10
2074.3501741821392
 20
2013.1268272094919
 11
2074.3501741821392
 21
2106.9264489209309
  0
LINE
  8
_0-0_0
  6
CONTINUOUS
 62
    7
 10
2074.3501741821392
 20
2106.9264489209309
 11
2091.6651364621061
 21
2124.1284556707792
  0
LINE
  8
_0-0_0
  6
CONTINUOUS
 62
    7
 10
2091.6651364621061
 20
2124.1284556707792
 11
2184.283849789836
 21
2124.1284556707792
  0
LINE
  8
_0-0_0
  6
CONTINUOUS
 62
    7
 10
2184.283849789836
 20
2124.1284556707792
 11
2201.925509471308
 21
2106.9264489209309
  0
LINE
  8
_0-0_0
  6
CONTINUOUS
 62
    7
 10
2329.4463951935959
 20
2106.9264489209309
 11
2329.4463951935959
 21
2013.1268272094919
  0
LINE
  8
_0-0_0
  6
CONTINUOUS
 62
    7
 10
2329.4463951935959
 20
2013.1268272094919
 11
2311.768435800841
 21
1995.924820459659
  0
LINE
  8
_0-0_0
  6
CONTINUOUS
 62
    7
 10
2311.768435800841
 20
1995.924820459659
 11
2219.2041720400061
 21
1995.924820459659
  0
LINE
  8
_0-0_0
  6
CONTINUOUS
 62
    7
 10
2219.2041720400061
 20
1995.924820459659
 11
2201.8529100487708
 21
2013.1268272094919
  0
LINE
  8
_0-0_0
  6
CONTINUOUS
 62
    7
 10
2201.8529100487708
 20
2013.1268272094919
 11
2201.8529100487708
 21
2106.9264489209309
  0
LINE
  8
_0-0_0
  6
CONTINUOUS
 62
    7
 10
2201.8529100487708
 20
2106.9264489209309
 11
2219.2041720400061
 21
2124.1284556707792
  0
LINE
  8
_0-0_0
  6
CONTINUOUS
 62
    7
 10
2219.2041720400061
 20
2124.1284556707792
 11
2311.768435800841
 21
2124.1284556707792
  0
LINE
  8
_0-0_0
  6
CONTINUOUS
 62
    7
 10
2311.768435800841
 20
2124.1284556707792
 11
2329.4463951935959
 21
2106.9264489209309
  0
LINE
  8
_0-0_0
  6
CONTINUOUS
 62
    7
 10
926.78925167120178
 20
1978.722813709812
 11
926.78925167120178
 21
1884.923191998372
  0
LINE
  8
_0-0_0
  6
CONTINUOUS
 62
    7
 10
926.78925167120178
 20
1884.923191998372
 11
909.14759198972945
 21
1867.7211852485248
  0
LINE
  8
_0-0_0
  6
CONTINUOUS
 62
    7
 10
909.14759198972945
 20
1867.7211852485248
 11
816.54702851762613
 21
1867.7211852485248
  0
LINE
  8
_0-0_0
  6
CONTINUOUS
 62
    7
 10
816.54702851762613
 20
1867.7211852485248
 11
799.19576652637625
 21
1884.923191998372
  0
LINE
  8
_0-0_0
  6
CONTINUOUS
 62
    7
 10
799.19576652637625
 20
1884.923191998372
 11
799.19576652637625
 21
1978.722813709812
  0
LINE
  8
_0-0_0
  6
CONTINUOUS
 62
    7
 10
799.19576652637625
 20
1978.722813709812
 11
816.54702851762613
 21
1995.924820459659
  0
LINE
  8
_0-0_0
  6
CONTINUOUS
 62
    7
 10
816.54702851762613
 20
1995.924820459659
 11
909.14759198972945
 21
1995.924820459659
  0
LINE
  8
_0-0_0
  6
CONTINUOUS
 62
    7
 10
909.14759198972945
 20
1995.924820459659
 11
926.78925167120178
 21
1978.722813709812
  0
LINE
  8
_0-0_0
  6
CONTINUOUS
 62
    7
 10
1054.3101373934751
 20
1978.722813709812
 11
1054.3101373934751
 21
1884.923191998372
  0
LINE
  8
_0-0_0
  6
CONTINUOUS
 62
    7
 10
1054.3101373934751
 20
1884.923191998372
 11
1036.6503278563609
 21
1867.7211852485248
  0
LINE
  8
_0-0_0
  6
CONTINUOUS
 62
    7
 10
1036.6503278563609
 20
1867.7211852485248
 11
944.06791423988489
 21
1867.7211852485248
  0
LINE
  8
_0-0_0
  6
CONTINUOUS
 62
    7
 10
944.06791423988489
 20
1867.7211852485248
 11
926.69850239300808
 21
1884.923191998372
  0
LINE
  8
_0-0_0
  6
CONTINUOUS
 62
    7
 10
926.69850239300808
 20
1884.923191998372
 11
926.69850239300808
 21
1978.722813709812
  0
LINE
  8
_0-0_0
  6
CONTINUOUS
 62
    7
 10
926.69850239300808
 20
1978.722813709812
 11
944.06791423988489
 21
1995.924820459659
  0
LINE
  8
_0-0_0
  6
CONTINUOUS
 62
    7
 10
944.06791423988489
 20
1995.924820459659
 11
1036.6503278563609
 21
1995.924820459659
  0
LINE
  8
_0-0_0
  6
CONTINUOUS
 62
    7
 10
1036.6503278563609
 20
1995.924820459659
 11
1054.3101373934751
 21
1978.722813709812
  0
LINE
  8
_0-0_0
  6
CONTINUOUS
 62
    7
 10
1181.794723404465
 20
1978.722813709812
 11
1181.794723404465
 21
1884.923191998372
  0
LINE
  8
_0-0_0
  6
CONTINUOUS
 62
    7
 10
1181.794723404465
 20
1884.923191998372
 11
1164.153063722978
 21
1867.7211852485248
  0
LINE
  8
_0-0_0
  6
CONTINUOUS
 62
    7
 10
1164.153063722978
 20
1867.7211852485248
 11
1071.570650106516
 21
1867.7211852485248
  0
LINE
  8
_0-0_0
  6
CONTINUOUS
 62
    7
 10
1071.570650106516
 20
1867.7211852485248
 11
1054.2375379709079
 21
1884.923191998372
  0
LINE
  8
_0-0_0
  6
CONTINUOUS
 62
    7
 10
1054.2375379709079
 20
1884.923191998372
 11
1054.2375379709079
 21
1978.722813709812
  0
LINE
  8
_0-0_0
  6
CONTINUOUS
 62
    7
 10
1054.2375379709079
 20
1978.722813709812
 11
1071.570650106516
 21
1995.924820459659
  0
LINE
  8
_0-0_0
  6
CONTINUOUS
 62
    7
 10
1071.570650106516
 20
1995.924820459659
 11
1164.153063722978
 21
1995.924820459659
  0
LINE
  8
_0-0_0
  6
CONTINUOUS
 62
    7
 10
1164.153063722978
 20
1995.924820459659
 11
1181.794723404465
 21
1978.722813709812
  0
LINE
  8
_0-0_0
  6
CONTINUOUS
 62
    7
 10
1309.3156091267228
 20
1978.722813709812
 11
1309.3156091267228
 21
1884.923191998372
  0
LINE
  8
_0-0_0
  6
CONTINUOUS
 62
    7
 10
1309.3156091267228
 20
1884.923191998372
 11
1291.7102491565338
 21
1867.7211852485248
  0
LINE
  8
_0-0_0
  6
CONTINUOUS
 62
    7
 10
1291.7102491565338
 20
1867.7211852485248
 11
1199.0733859731481
 21
1867.7211852485248
  0
LINE
  8
_0-0_0
  6
CONTINUOUS
 62
    7
 10
1199.0733859731481
 20
1867.7211852485248
 11
1181.7584236931812
 21
1884.923191998372
  0
LINE
  8
_0-0_0
  6
CONTINUOUS
 62
    7
 10
1181.7584236931812
 20
1884.923191998372
 11
1181.7584236931812
 21
1978.722813709812
  0
LINE
  8
_0-0_0
  6
CONTINUOUS
 62
    7
 10
1181.7584236931812
 20
1978.722813709812
 11
1199.0733859731481
 21
1995.924820459659
  0
LINE
  8
_0-0_0
  6
CONTINUOUS
 62
    7
 10
1199.0733859731481
 20
1995.924820459659
 11
1291.7102491565338
 21
1995.924820459659
  0
LINE
  8
_0-0_0
  6
CONTINUOUS
 62
    7
 10
1291.7102491565338
 20
1995.924820459659
 11
1309.3156091267228
 21
1978.722813709812
  0
LINE
  8
_0-0_0
  6
CONTINUOUS
 62
    7
 10
1436.854644704624
 20
1978.722813709812
 11
1436.854644704624
 21
1884.923191998372
  0
LINE
  8
_0-0_0
  6
CONTINUOUS
 62
    7
 10
1436.854644704624
 20
1884.923191998372
 11
1419.1948351675101
 21
1867.7211852485248
  0
LINE
  8
_0-0_0
  6
CONTINUOUS
 62
    7
 10
1419.1948351675101
 20
1867.7211852485248
 11
1326.576121839779
 21
1867.7211852485248
  0
LINE
  8
_0-0_0
  6
CONTINUOUS
 62
    7
 10
1326.576121839779
 20
1867.7211852485248
 11
1309.2611595597982
 21
1884.923191998372
  0
LINE
  8
_0-0_0
  6
CONTINUOUS
 62
    7
 10
1309.2611595597982
 20
1884.923191998372
 11
1309.2611595597982
 21
1978.722813709812
  0
LINE
  8
_0-0_0
  6
CONTINUOUS
 62
    7
 10
1309.2611595597982
 20
1978.722813709812
 11
1326.576121839779
 21
1995.924820459659
  0
LINE
  8
_0-0_0
  6
CONTINUOUS
 62
    7
 10
1326.576121839779
 20
1995.924820459659
 11
1419.1948351675101
 21
1995.924820459659
  0
LINE
  8
_0-0_0
  6
CONTINUOUS
 62
    7
 10
1419.1948351675101
 20
1995.924820459659
 11
1436.854644704624
 21
1978.722813709812
  0
LINE
  8
_0-0_0
  6
CONTINUOUS
 62
    7
 10
1564.321080859987
 20
1978.722813709812
 11
1564.321080859987
 21
1884.923191998372
  0
LINE
  8
_0-0_0
  6
CONTINUOUS
 62
    7
 10
1564.321080859987
 20
1884.923191998372
 11
1546.6794211785141
 21
1867.7211852485248
  0
LINE
  8
_0-0_0
  6
CONTINUOUS
 62
    7
 10
1546.6794211785141
 20
1867.7211852485248
 11
1454.1151574176799
 21
1867.7211852485248
  0
LINE
  8
_0-0_0
  6
CONTINUOUS
 62
    7
 10
1454.1151574176799
 20
1867.7211852485248
 11
1436.7638954264439
 21
1884.923191998372
  0
LINE
  8
_0-0_0
  6
CONTINUOUS
 62
    7
 10
1436.7638954264439
 20
1884.923191998372
 11
1436.7638954264439
 21
1978.722813709812
  0
LINE
  8
_0-0_0
  6
CONTINUOUS
 62
    7
 10
1436.7638954264439
 20
1978.722813709812
 11
1454.1151574176799
 21
1995.924820459659
  0
LINE
  8
_0-0_0
  6
CONTINUOUS
 62
    7
 10
1454.1151574176799
 20
1995.924820459659
 11
1546.6794211785141
 21
1995.924820459659
  0
LINE
  8
_0-0_0
  6
CONTINUOUS
 62
    7
 10
1546.6794211785141
 20
1995.924820459659
 11
1564.321080859987
 21
1978.722813709812
  0
LINE
  8
_0-0_0
  6
CONTINUOUS
 62
    7
 10
1691.878266293528
 20
1978.722813709812
 11
1691.878266293528
 21
1884.923191998372
  0
LINE
  8
_0-0_0
  6
CONTINUOUS
 62
    7
 10
1691.878266293528
 20
1884.923191998372
 11
1674.2366066120558
 21
1867.7211852485248
  0
LINE
  8
_0-0_0
  6
CONTINUOUS
 62
    7
 10
1674.2366066120558
 20
1867.7211852485248
 11
1581.636043139953
 21
1867.7211852485248
  0
LINE
  8
_0-0_0
  6
CONTINUOUS
 62
    7
 10
1581.636043139953
 20
1867.7211852485248
 11
1564.2847811487031
 21
1884.923191998372
  0
LINE
  8
_0-0_0
  6
CONTINUOUS
 62
    7
 10
1564.2847811487031
 20
1884.923191998372
 11
1564.2847811487031
 21
1978.722813709812
  0
LINE
  8
_0-0_0
  6
CONTINUOUS
 62
    7
 10
1564.2847811487031
 20
1978.722813709812
 11
1581.636043139953
 21
1995.924820459659
  0
LINE
  8
_0-0_0
  6
CONTINUOUS
 62
    7
 10
1581.636043139953
 20
1995.924820459659
 11
1674.2366066120558
 21
1995.924820459659
  0
LINE
  8
_0-0_0
  6
CONTINUOUS
 62
    7
 10
1674.2366066120558
 20
1995.924820459659
 11
1691.878266293528
 21
1978.722813709812
  0
LINE
  8
_0-0_0
  6
CONTINUOUS
 62
    7
 10
1819.399152015802
 20
1978.722813709812
 11
1819.399152015802
 21
1884.923191998372
  0
LINE
  8
_0-0_0
  6
CONTINUOUS
 62
    7
 10
1819.399152015802
 20
1884.923191998372
 11
1801.7393424786869
 21
1867.7211852485248
  0
LINE
  8
_0-0_0
  6
CONTINUOUS
 62
    7
 10
1801.7393424786869
 20
1867.7211852485248
 11
1709.1387790065701
 21
1867.7211852485248
  0
LINE
  8
_0-0_0
  6
CONTINUOUS
 62
    7
 10
1709.1387790065701
 20
1867.7211852485248
 11
1691.7875170153347
 21
1884.923191998372
  0
LINE
  8
_0-0_0
  6
CONTINUOUS
 62
    7
 10
1691.7875170153347
 20
1884.923191998372
 11
1691.7875170153347
 21
1978.722813709812
  0
LINE
  8
_0-0_0
  6
CONTINUOUS
 62
    7
 10
1691.7875170153347
 20
1978.722813709812
 11
1709.1387790065701
 21
1995.924820459659
  0
LINE
  8
_0-0_0
  6
CONTINUOUS
 62
    7
 10
1709.1387790065701
 20
1995.924820459659
 11
1801.7393424786869
 21
1995.924820459659
  0
LINE
  8
_0-0_0
  6
CONTINUOUS
 62
    7
 10
1801.7393424786869
 20
1995.924820459659
 11
1819.399152015802
 21
1978.722813709812
  0
LINE
  8
_0-0_0
  6
CONTINUOUS
 62
    7
 10
1946.883738026791
 20
1978.722813709812
 11
1946.883738026791
 21
1884.923191998372
  0
LINE
  8
_0-0_0
  6
CONTINUOUS
 62
    7
 10
1946.883738026791
 20
1884.923191998372
 11
1929.242078345304
 21
1867.7211852485248
  0
LINE
  8
_0-0_0
  6
CONTINUOUS
 62
    7
 10
1929.242078345304
 20
1867.7211852485248
 11
1836.6415148732158
 21
1867.7211852485248
  0
LINE
  8
_0-0_0
  6
CONTINUOUS
 62
    7
 10
1836.6415148732158
 20
1867.7211852485248
 11
1819.326552593235
 21
1884.923191998372
  0
LINE
  8
_0-0_0
  6
CONTINUOUS
 62
    7
 10
1819.326552593235
 20
1884.923191998372
 11
1819.326552593235
 21
1978.722813709812
  0
LINE
  8
_0-0_0
  6
CONTINUOUS
 62
    7
 10
1819.326552593235
 20
1978.722813709812
 11
1836.6415148732158
 21
1995.924820459659
  0
LINE
  8
_0-0_0
  6
CONTINUOUS
 62
    7
 10
1836.6415148732158
 20
1995.924820459659
 11
1929.242078345304
 21
1995.924820459659
  0
LINE
  8
_0-0_0
  6
CONTINUOUS
 62
    7
 10
1929.242078345304
 20
1995.924820459659
 11
1946.883738026791
 21
1978.722813709812
  0
LINE
  8
_0-0_0
  6
CONTINUOUS
 62
    7
 10
2074.4046237490502
 20
1978.722813709812
 11
2074.4046237490502
 21
1884.923191998372
  0
LINE
  8
_0-0_0
  6
CONTINUOUS
 62
    7
 10
2074.4046237490502
 20
1884.923191998372
 11
2056.7629640675782
 21
1867.7211852485248
  0
LINE
  8
_0-0_0
  6
CONTINUOUS
 62
    7
 10
2056.7629640675782
 20
1867.7211852485248
 11
1964.162400595475
 21
1867.7211852485248
  0
LINE
  8
_0-0_0
  6
CONTINUOUS
 62
    7
 10
1964.162400595475
 20
1867.7211852485248
 11
1946.847438315508
 21
1884.923191998372
  0
LINE
  8
_0-0_0
  6
CONTINUOUS
 62
    7
 10
1946.847438315508
 20
1884.923191998372
 11
1946.847438315508
 21
1978.722813709812
  0
LINE
  8
_0-0_0
  6
CONTINUOUS
 62
    7
 10
1946.847438315508
 20
1978.722813709812
 11
1964.162400595475
 21
1995.924820459659
  0
LINE
  8
_0-0_0
  6
CONTINUOUS
 62
    7
 10
1964.162400595475
 20
1995.924820459659
 11
2056.7629640675782
 21
1995.924820459659
  0
LINE
  8
_0-0_0
  6
CONTINUOUS
 62
    7
 10
2056.7629640675782
 20
1995.924820459659
 11
2074.4046237490502
 21
1978.722813709812
  0
LINE
  8
_0-0_0
  6
CONTINUOUS
 62
    7
 10
2201.925509471308
 20
1978.722813709812
 11
2201.925509471308
 21
1884.923191998372
  0
LINE
  8
_0-0_0
  6
CONTINUOUS
 62
    7
 10
2201.925509471308
 20
1884.923191998372
 11
2184.283849789836
 21
1867.7211852485248
  0
LINE
  8
_0-0_0
  6
CONTINUOUS
 62
    7
 10
2184.283849789836
 20
1867.7211852485248
 11
2091.6651364621061
 21
1867.7211852485248
  0
LINE
  8
_0-0_0
  6
CONTINUOUS
 62
    7
 10
2091.6651364621061
 20
1867.7211852485248
 11
2074.3501741821392
 21
1884.923191998372
  0
LINE
  8
_0-0_0
  6
CONTINUOUS
 62
    7
 10
2074.3501741821392
 20
1884.923191998372
 11
2074.3501741821392
 21
1978.722813709812
  0
LINE
  8
_0-0_0
  6
CONTINUOUS
 62
    7
 10
2074.3501741821392
 20
1978.722813709812
 11
2091.6651364621061
 21
1995.924820459659
  0
LINE
  8
_0-0_0
  6
CONTINUOUS
 62
    7
 10
2091.6651364621061
 20
1995.924820459659
 11
2184.283849789836
 21
1995.924820459659
  0
LINE
  8
_0-0_0
  6
CONTINUOUS
 62
    7
 10
2184.283849789836
 20
1995.924820459659
 11
2201.925509471308
 21
1978.722813709812
  0
LINE
  8
_0-0_0
  6
CONTINUOUS
 62
    7
 10
2329.4463951935959
 20
1978.722813709812
 11
2329.4463951935959
 21
1884.923191998372
  0
LINE
  8
_0-0_0
  6
CONTINUOUS
 62
    7
 10
2329.4463951935959
 20
1884.923191998372
 11
2311.768435800841
 21
1867.7211852485248
  0
LINE
  8
_0-0_0
  6
CONTINUOUS
 62
    7
 10
2311.768435800841
 20
1867.7211852485248
 11
2219.2041720400061
 21
1867.7211852485248
  0
LINE
  8
_0-0_0
  6
CONTINUOUS
 62
    7
 10
2219.2041720400061
 20
1867.7211852485248
 11
2201.8529100487708
 21
1884.923191998372
  0
LINE
  8
_0-0_0
  6
CONTINUOUS
 62
    7
 10
2201.8529100487708
 20
1884.923191998372
 11
2201.8529100487708
 21
1978.722813709812
  0
LINE
  8
_0-0_0
  6
CONTINUOUS
 62
    7
 10
2201.8529100487708
 20
1978.722813709812
 11
2219.2041720400061
 21
1995.924820459659
  0
LINE
  8
_0-0_0
  6
CONTINUOUS
 62
    7
 10
2219.2041720400061
 20
1995.924820459659
 11
2311.768435800841
 21
1995.924820459659
  0
LINE
  8
_0-0_0
  6
CONTINUOUS
 62
    7
 10
2311.768435800841
 20
1995.924820459659
 11
2329.4463951935959
 21
1978.722813709812
  0
LINE
  8
_0-0_0
  6
CONTINUOUS
 62
    7
 10
926.78925167120178
 20
1850.5191784986773
 11
926.78925167120178
 21
1756.7195567872527
  0
LINE
  8
_0-0_0
  6
CONTINUOUS
 62
    7
 10
926.78925167120178
 20
1756.7195567872527
 11
909.14759198972945
 21
1739.5175500373909
  0
LINE
  8
_0-0_0
  6
CONTINUOUS
 62
    7
 10
909.14759198972945
 20
1739.5175500373909
 11
816.54702851762613
 21
1739.5175500373909
  0
LINE
  8
_0-0_0
  6
CONTINUOUS
 62
    7
 10
816.54702851762613
 20
1739.5175500373909
 11
799.19576652637625
 21
1756.7195567872527
  0
LINE
  8
_0-0_0
  6
CONTINUOUS
 62
    7
 10
799.19576652637625
 20
1756.7195567872527
 11
799.19576652637625
 21
1850.5191784986773
  0
LINE
  8
_0-0_0
  6
CONTINUOUS
 62
    7
 10
799.19576652637625
 20
1850.5191784986773
 11
816.54702851762613
 21
1867.7211852485248
  0
LINE
  8
_0-0_0
  6
CONTINUOUS
 62
    7
 10
816.54702851762613
 20
1867.7211852485248
 11
909.14759198972945
 21
1867.7211852485248
  0
LINE
  8
_0-0_0
  6
CONTINUOUS
 62
    7
 10
909.14759198972945
 20
1867.7211852485248
 11
926.78925167120178
 21
1850.5191784986773
  0
LINE
  8
_0-0_0
  6
CONTINUOUS
 62
    7
 10
1054.3101373934751
 20
1850.5191784986773
 11
1054.3101373934751
 21
1756.7195567872527
  0
LINE
  8
_0-0_0
  6
CONTINUOUS
 62
    7
 10
1054.3101373934751
 20
1756.7195567872527
 11
1036.6503278563609
 21
1739.5175500373909
  0
LINE
  8
_0-0_0
  6
CONTINUOUS
 62
    7
 10
1036.6503278563609
 20
1739.5175500373909
 11
944.06791423988489
 21
1739.5175500373909
  0
LINE
  8
_0-0_0
  6
CONTINUOUS
 62
    7
 10
944.06791423988489
 20
1739.5175500373909
 11
926.69850239300808
 21
1756.7195567872527
  0
LINE
  8
_0-0_0
  6
CONTINUOUS
 62
    7
 10
926.69850239300808
 20
1756.7195567872527
 11
926.69850239300808
 21
1850.5191784986773
  0
LINE
  8
_0-0_0
  6
CONTINUOUS
 62
    7
 10
926.69850239300808
 20
1850.5191784986773
 11
944.06791423988489
 21
1867.7211852485248
  0
LINE
  8
_0-0_0
  6
CONTINUOUS
 62
    7
 10
944.06791423988489
 20
1867.7211852485248
 11
1036.6503278563609
 21
1867.7211852485248
  0
LINE
  8
_0-0_0
  6
CONTINUOUS
 62
    7
 10
1036.6503278563609
 20
1867.7211852485248
 11
1054.3101373934751
 21
1850.5191784986773
  0
LINE
  8
_0-0_0
  6
CONTINUOUS
 62
    7
 10
1181.794723404465
 20
1850.5191784986773
 11
1181.794723404465
 21
1756.7195567872527
  0
LINE
  8
_0-0_0
  6
CONTINUOUS
 62
    7
 10
1181.794723404465
 20
1756.7195567872527
 11
1164.153063722978
 21
1739.5175500373909
  0
LINE
  8
_0-0_0
  6
CONTINUOUS
 62
    7
 10
1164.153063722978
 20
1739.5175500373909
 11
1071.570650106516
 21
1739.5175500373909
  0
LINE
  8
_0-0_0
  6
CONTINUOUS
 62
    7
 10
1071.570650106516
 20
1739.5175500373909
 11
1054.2375379709079
 21
1756.7195567872527
  0
LINE
  8
_0-0_0
  6
CONTINUOUS
 62
    7
 10
1054.2375379709079
 20
1756.7195567872527
 11
1054.2375379709079
 21
1850.5191784986773
  0
LINE
  8
_0-0_0
  6
CONTINUOUS
 62
    7
 10
1054.2375379709079
 20
1850.5191784986773
 11
1071.570650106516
 21
1867.7211852485248
  0
LINE
  8
_0-0_0
  6
CONTINUOUS
 62
    7
 10
1071.570650106516
 20
1867.7211852485248
 11
1164.153063722978
 21
1867.7211852485248
  0
LINE
  8
_0-0_0
  6
CONTINUOUS
 62
    7
 10
1164.153063722978
 20
1867.7211852485248
 11
1181.794723404465
 21
1850.5191784986773
  0
LINE
  8
_0-0_0
  6
CONTINUOUS
 62
    7
 10
1309.3156091267228
 20
1850.5191784986773
 11
1309.3156091267228
 21
1756.7195567872527
  0
LINE
  8
_0-0_0
  6
CONTINUOUS
 62
    7
 10
1309.3156091267228
 20
1756.7195567872527
 11
1291.7102491565338
 21
1739.5175500373909
  0
LINE
  8
_0-0_0
  6
CONTINUOUS
 62
    7
 10
1291.7102491565338
 20
1739.5175500373909
 11
1199.0733859731481
 21
1739.5175500373909
  0
LINE
  8
_0-0_0
  6
CONTINUOUS
 62
    7
 10
1199.0733859731481
 20
1739.5175500373909
 11
1181.7584236931812
 21
1756.7195567872527
  0
LINE
  8
_0-0_0
  6
CONTINUOUS
 62
    7
 10
1181.7584236931812
 20
1756.7195567872527
 11
1181.7584236931812
 21
1850.5191784986773
  0
LINE
  8
_0-0_0
  6
CONTINUOUS
 62
    7
 10
1181.7584236931812
 20
1850.5191784986773
 11
1199.0733859731481
 21
1867.7211852485248
  0
LINE
  8
_0-0_0
  6
CONTINUOUS
 62
    7
 10
1199.0733859731481
 20
1867.7211852485248
 11
1291.7102491565338
 21
1867.7211852485248
  0
LINE
  8
_0-0_0
  6
CONTINUOUS
 62
    7
 10
1291.7102491565338
 20
1867.7211852485248
 11
1309.3156091267228
 21
1850.5191784986773
  0
LINE
  8
_0-0_0
  6
CONTINUOUS
 62
    7
 10
1436.854644704624
 20
1850.5191784986773
 11
1436.854644704624
 21
1756.7195567872527
  0
LINE
  8
_0-0_0
  6
CONTINUOUS
 62
    7
 10
1436.854644704624
 20
1756.7195567872527
 11
1419.1948351675101
 21
1739.5175500373909
  0
LINE
  8
_0-0_0
  6
CONTINUOUS
 62
    7
 10
1419.1948351675101
 20
1739.5175500373909
 11
1326.576121839779
 21
1739.5175500373909
  0
LINE
  8
_0-0_0
  6
CONTINUOUS
 62
    7
 10
1326.576121839779
 20
1739.5175500373909
 11
1309.2611595597982
 21
1756.7195567872527
  0
LINE
  8
_0-0_0
  6
CONTINUOUS
 62
    7
 10
1309.2611595597982
 20
1756.7195567872527
 11
1309.2611595597982
 21
1850.5191784986773
  0
LINE
  8
_0-0_0
  6
CONTINUOUS
 62
    7
 10
1309.2611595597982
 20
1850.5191784986773
 11
1326.576121839779
 21
1867.7211852485248
  0
LINE
  8
_0-0_0
  6
CONTINUOUS
 62
    7
 10
1326.576121839779
 20
1867.7211852485248
 11
1419.1948351675101
 21
1867.7211852485248
  0
LINE
  8
_0-0_0
  6
CONTINUOUS
 62
    7
 10
1419.1948351675101
 20
1867.7211852485248
 11
1436.854644704624
 21
1850.5191784986773
  0
LINE
  8
_0-0_0
  6
CONTINUOUS
 62
    7
 10
1564.321080859987
 20
1850.5191784986773
 11
1564.321080859987
 21
1756.7195567872527
  0
LINE
  8
_0-0_0
  6
CONTINUOUS
 62
    7
 10
1564.321080859987
 20
1756.7195567872527
 11
1546.6794211785141
 21
1739.5175500373909
  0
LINE
  8
_0-0_0
  6
CONTINUOUS
 62
    7
 10
1546.6794211785141
 20
1739.5175500373909
 11
1454.1151574176799
 21
1739.5175500373909
  0
LINE
  8
_0-0_0
  6
CONTINUOUS
 62
    7
 10
1454.1151574176799
 20
1739.5175500373909
 11
1436.7638954264439
 21
1756.7195567872527
  0
LINE
  8
_0-0_0
  6
CONTINUOUS
 62
    7
 10
1436.7638954264439
 20
1756.7195567872527
 11
1436.7638954264439
 21
1850.5191784986773
  0
LINE
  8
_0-0_0
  6
CONTINUOUS
 62
    7
 10
1436.7638954264439
 20
1850.5191784986773
 11
1454.1151574176799
 21
1867.7211852485248
  0
LINE
  8
_0-0_0
  6
CONTINUOUS
 62
    7
 10
1454.1151574176799
 20
1867.7211852485248
 11
1546.6794211785141
 21
1867.7211852485248
  0
LINE
  8
_0-0_0
  6
CONTINUOUS
 62
    7
 10
1546.6794211785141
 20
1867.7211852485248
 11
1564.321080859987
 21
1850.5191784986773
  0
LINE
  8
_0-0_0
  6
CONTINUOUS
 62
    7
 10
1691.878266293528
 20
1850.5191784986773
 11
1691.878266293528
 21
1756.7195567872527
  0
LINE
  8
_0-0_0
  6
CONTINUOUS
 62
    7
 10
1691.878266293528
 20
1756.7195567872527
 11
1674.2366066120558
 21
1739.5175500373909
  0
LINE
  8
_0-0_0
  6
CONTINUOUS
 62
    7
 10
1674.2366066120558
 20
1739.5175500373909
 11
1581.636043139953
 21
1739.5175500373909
  0
LINE
  8
_0-0_0
  6
CONTINUOUS
 62
    7
 10
1581.636043139953
 20
1739.5175500373909
 11
1564.2847811487031
 21
1756.7195567872527
  0
LINE
  8
_0-0_0
  6
CONTINUOUS
 62
    7
 10
1564.2847811487031
 20
1756.7195567872527
 11
1564.2847811487031
 21
1850.5191784986773
  0
LINE
  8
_0-0_0
  6
CONTINUOUS
 62
    7
 10
1564.2847811487031
 20
1850.5191784986773
 11
1581.636043139953
 21
1867.7211852485248
  0
LINE
  8
_0-0_0
  6
CONTINUOUS
 62
    7
 10
1581.636043139953
 20
1867.7211852485248
 11
1674.2366066120558
 21
1867.7211852485248
  0
LINE
  8
_0-0_0
  6
CONTINUOUS
 62
    7
 10
1674.2366066120558
 20
1867.7211852485248
 11
1691.878266293528
 21
1850.5191784986773
  0
LINE
  8
_0-0_0
  6
CONTINUOUS
 62
    7
 10
1819.399152015802
 20
1850.5191784986773
 11
1819.399152015802
 21
1756.7195567872527
  0
LINE
  8
_0-0_0
  6
CONTINUOUS
 62
    7
 10
1819.399152015802
 20
1756.7195567872527
 11
1801.7393424786869
 21
1739.5175500373909
  0
LINE
  8
_0-0_0
  6
CONTINUOUS
 62
    7
 10
1801.7393424786869
 20
1739.5175500373909
 11
1709.1387790065701
 21
1739.5175500373909
  0
LINE
  8
_0-0_0
  6
CONTINUOUS
 62
    7
 10
1709.1387790065701
 20
1739.5175500373909
 11
1691.7875170153347
 21
1756.7195567872527
  0
LINE
  8
_0-0_0
  6
CONTINUOUS
 62
    7
 10
1691.7875170153347
 20
1756.7195567872527
 11
1691.7875170153347
 21
1850.5191784986773
  0
LINE
  8
_0-0_0
  6
CONTINUOUS
 62
    7
 10
1691.7875170153347
 20
1850.5191784986773
 11
1709.1387790065701
 21
1867.7211852485248
  0
LINE
  8
_0-0_0
  6
CONTINUOUS
 62
    7
 10
1709.1387790065701
 20
1867.7211852485248
 11
1801.7393424786869
 21
1867.7211852485248
  0
LINE
  8
_0-0_0
  6
CONTINUOUS
 62
    7
 10
1801.7393424786869
 20
1867.7211852485248
 11
1819.399152015802
 21
1850.5191784986773
  0
LINE
  8
_0-0_0
  6
CONTINUOUS
 62
    7
 10
1946.883738026791
 20
1850.5191784986773
 11
1946.883738026791
 21
1756.7195567872527
  0
LINE
  8
_0-0_0
  6
CONTINUOUS
 62
    7
 10
1946.883738026791
 20
1756.7195567872527
 11
1929.242078345304
 21
1739.5175500373909
  0
LINE
  8
_0-0_0
  6
CONTINUOUS
 62
    7
 10
1929.242078345304
 20
1739.5175500373909
 11
1836.6415148732158
 21
1739.5175500373909
  0
LINE
  8
_0-0_0
  6
CONTINUOUS
 62
    7
 10
1836.6415148732158
 20
1739.5175500373909
 11
1819.326552593235
 21
1756.7195567872527
  0
LINE
  8
_0-0_0
  6
CONTINUOUS
 62
    7
 10
1819.326552593235
 20
1756.7195567872527
 11
1819.326552593235
 21
1850.5191784986773
  0
LINE
  8
_0-0_0
  6
CONTINUOUS
 62
    7
 10
1819.326552593235
 20
1850.5191784986773
 11
1836.6415148732158
 21
1867.7211852485248
  0
LINE
  8
_0-0_0
  6
CONTINUOUS
 62
    7
 10
1836.6415148732158
 20
1867.7211852485248
 11
1929.242078345304
 21
1867.7211852485248
  0
LINE
  8
_0-0_0
  6
CONTINUOUS
 62
    7
 10
1929.242078345304
 20
1867.7211852485248
 11
1946.883738026791
 21
1850.5191784986773
  0
LINE
  8
_0-0_0
  6
CONTINUOUS
 62
    7
 10
2074.4046237490502
 20
1850.5191784986773
 11
2074.4046237490502
 21
1756.7195567872527
  0
LINE
  8
_0-0_0
  6
CONTINUOUS
 62
    7
 10
2074.4046237490502
 20
1756.7195567872527
 11
2056.7629640675782
 21
1739.5175500373909
  0
LINE
  8
_0-0_0
  6
CONTINUOUS
 62
    7
 10
2056.7629640675782
 20
1739.5175500373909
 11
1964.162400595475
 21
1739.5175500373909
  0
LINE
  8
_0-0_0
  6
CONTINUOUS
 62
    7
 10
1964.162400595475
 20
1739.5175500373909
 11
1946.847438315508
 21
1756.7195567872527
  0
LINE
  8
_0-0_0
  6
CONTINUOUS
 62
    7
 10
1946.847438315508
 20
1756.7195567872527
 11
1946.847438315508
 21
1850.5191784986773
  0
LINE
  8
_0-0_0
  6
CONTINUOUS
 62
    7
 10
1946.847438315508
 20
1850.5191784986773
 11
1964.162400595475
 21
1867.7211852485248
  0
LINE
  8
_0-0_0
  6
CONTINUOUS
 62
    7
 10
1964.162400595475
 20
1867.7211852485248
 11
2056.7629640675782
 21
1867.7211852485248
  0
LINE
  8
_0-0_0
  6
CONTINUOUS
 62
    7
 10
2056.7629640675782
 20
1867.7211852485248
 11
2074.4046237490502
 21
1850.5191784986773
  0
LINE
  8
_0-0_0
  6
CONTINUOUS
 62
    7
 10
2201.925509471308
 20
1850.5191784986773
 11
2201.925509471308
 21
1756.7195567872527
  0
LINE
  8
_0-0_0
  6
CONTINUOUS
 62
    7
 10
2201.925509471308
 20
1756.7195567872527
 11
2184.283849789836
 21
1739.5175500373909
  0
LINE
  8
_0-0_0
  6
CONTINUOUS
 62
    7
 10
2184.283849789836
 20
1739.5175500373909
 11
2091.6651364621061
 21
1739.5175500373909
  0
LINE
  8
_0-0_0
  6
CONTINUOUS
 62
    7
 10
2091.6651364621061
 20
1739.5175500373909
 11
2074.3501741821392
 21
1756.7195567872527
  0
LINE
  8
_0-0_0
  6
CONTINUOUS
 62
    7
 10
2074.3501741821392
 20
1756.7195567872527
 11
2074.3501741821392
 21
1850.5191784986773
  0
LINE
  8
_0-0_0
  6
CONTINUOUS
 62
    7
 10
2074.3501741821392
 20
1850.5191784986773
 11
2091.6651364621061
 21
1867.7211852485248
  0
LINE
  8
_0-0_0
  6
CONTINUOUS
 62
    7
 10
2091.6651364621061
 20
1867.7211852485248
 11
2184.283849789836
 21
1867.7211852485248
  0
LINE
  8
_0-0_0
  6
CONTINUOUS
 62
    7
 10
2184.283849789836
 20
1867.7211852485248
 11
2201.925509471308
 21
1850.5191784986773
  0
LINE
  8
_0-0_0
  6
CONTINUOUS
 62
    7
 10
2329.4463951935959
 20
1850.5191784986773
 11
2329.4463951935959
 21
1756.7195567872527
  0
LINE
  8
_0-0_0
  6
CONTINUOUS
 62
    7
 10
2329.4463951935959
 20
1756.7195567872527
 11
2311.768435800841
 21
1739.5175500373909
  0
LINE
  8
_0-0_0
  6
CONTINUOUS
 62
    7
 10
2311.768435800841
 20
1739.5175500373909
 11
2219.2041720400061
 21
1739.5175500373909
  0
LINE
  8
_0-0_0
  6
CONTINUOUS
 62
    7
 10
2219.2041720400061
 20
1739.5175500373909
 11
2201.8529100487708
 21
1756.7195567872527
  0
LINE
  8
_0-0_0
  6
CONTINUOUS
 62
    7
 10
2201.8529100487708
 20
1756.7195567872527
 11
2201.8529100487708
 21
1850.5191784986773
  0
LINE
  8
_0-0_0
  6
CONTINUOUS
 62
    7
 10
2201.8529100487708
 20
1850.5191784986773
 11
2219.2041720400061
 21
1867.7211852485248
  0
LINE
  8
_0-0_0
  6
CONTINUOUS
 62
    7
 10
2219.2041720400061
 20
1867.7211852485248
 11
2311.768435800841
 21
1867.7211852485248
  0
LINE
  8
_0-0_0
  6
CONTINUOUS
 62
    7
 10
2311.768435800841
 20
1867.7211852485248
 11
2329.4463951935959
 21
1850.5191784986773
  0
LINE
  8
_0-0_0
  6
CONTINUOUS
 62
    7
 10
926.78925167120178
 20
1722.2975118339391
 11
926.78925167120178
 21
1628.515921576118
  0
LINE
  8
_0-0_0
  6
CONTINUOUS
 62
    7
 10
926.78925167120178
 20
1628.515921576118
 11
909.14759198972945
 21
1611.313914826271
  0
LINE
  8
_0-0_0
  6
CONTINUOUS
 62
    7
 10
909.14759198972945
 20
1611.313914826271
 11
816.54702851762613
 21
1611.313914826271
  0
LINE
  8
_0-0_0
  6
CONTINUOUS
 62
    7
 10
816.54702851762613
 20
1611.313914826271
 11
799.19576652637625
 21
1628.515921576118
  0
LINE
  8
_0-0_0
  6
CONTINUOUS
 62
    7
 10
799.19576652637625
 20
1628.515921576118
 11
799.19576652637625
 21
1722.2975118339391
  0
LINE
  8
_0-0_0
  6
CONTINUOUS
 62
    7
 10
799.19576652637625
 20
1722.2975118339391
 11
816.54702851762613
 21
1739.5175500373909
  0
LINE
  8
_0-0_0
  6
CONTINUOUS
 62
    7
 10
816.54702851762613
 20
1739.5175500373909
 11
909.14759198972945
 21
1739.5175500373909
  0
LINE
  8
_0-0_0
  6
CONTINUOUS
 62
    7
 10
909.14759198972945
 20
1739.5175500373909
 11
926.78925167120178
 21
1722.2975118339391
  0
LINE
  8
_0-0_0
  6
CONTINUOUS
 62
    7
 10
1054.3101373934751
 20
1722.2975118339391
 11
1054.3101373934751
 21
1628.515921576118
  0
LINE
  8
_0-0_0
  6
CONTINUOUS
 62
    7
 10
1054.3101373934751
 20
1628.515921576118
 11
1036.6503278563609
 21
1611.313914826271
  0
LINE
  8
_0-0_0
  6
CONTINUOUS
 62
    7
 10
1036.6503278563609
 20
1611.313914826271
 11
944.06791423988489
 21
1611.313914826271
  0
LINE
  8
_0-0_0
  6
CONTINUOUS
 62
    7
 10
944.06791423988489
 20
1611.313914826271
 11
926.69850239300808
 21
1628.515921576118
  0
LINE
  8
_0-0_0
  6
CONTINUOUS
 62
    7
 10
926.69850239300808
 20
1628.515921576118
 11
926.69850239300808
 21
1722.2975118339391
  0
LINE
  8
_0-0_0
  6
CONTINUOUS
 62
    7
 10
926.69850239300808
 20
1722.2975118339391
 11
944.06791423988489
 21
1739.5175500373909
  0
LINE
  8
_0-0_0
  6
CONTINUOUS
 62
    7
 10
944.06791423988489
 20
1739.5175500373909
 11
1036.6503278563609
 21
1739.5175500373909
  0
LINE
  8
_0-0_0
  6
CONTINUOUS
 62
    7
 10
1036.6503278563609
 20
1739.5175500373909
 11
1054.3101373934751
 21
1722.2975118339391
  0
LINE
  8
_0-0_0
  6
CONTINUOUS
 62
    7
 10
1181.794723404465
 20
1722.2975118339391
 11
1181.794723404465
 21
1628.515921576118
  0
LINE
  8
_0-0_0
  6
CONTINUOUS
 62
    7
 10
1181.794723404465
 20
1628.515921576118
 11
1164.153063722978
 21
1611.313914826271
  0
LINE
  8
_0-0_0
  6
CONTINUOUS
 62
    7
 10
1164.153063722978
 20
1611.313914826271
 11
1071.570650106516
 21
1611.313914826271
  0
LINE
  8
_0-0_0
  6
CONTINUOUS
 62
    7
 10
1071.570650106516
 20
1611.313914826271
 11
1054.2375379709079
 21
1628.515921576118
  0
LINE
  8
_0-0_0
  6
CONTINUOUS
 62
    7
 10
1054.2375379709079
 20
1628.515921576118
 11
1054.2375379709079
 21
1722.2975118339391
  0
LINE
  8
_0-0_0
  6
CONTINUOUS
 62
    7
 10
1054.2375379709079
 20
1722.2975118339391
 11
1071.570650106516
 21
1739.5175500373909
  0
LINE
  8
_0-0_0
  6
CONTINUOUS
 62
    7
 10
1071.570650106516
 20
1739.5175500373909
 11
1164.153063722978
 21
1739.5175500373909
  0
LINE
  8
_0-0_0
  6
CONTINUOUS
 62
    7
 10
1164.153063722978
 20
1739.5175500373909
 11
1181.794723404465
 21
1722.2975118339391
  0
LINE
  8
_0-0_0
  6
CONTINUOUS
 62
    7
 10
1309.3156091267228
 20
1722.2975118339391
 11
1309.3156091267228
 21
1628.515921576118
  0
LINE
  8
_0-0_0
  6
CONTINUOUS
 62
    7
 10
1309.3156091267228
 20
1628.515921576118
 11
1291.7102491565338
 21
1611.313914826271
  0
LINE
  8
_0-0_0
  6
CONTINUOUS
 62
    7
 10
1291.7102491565338
 20
1611.313914826271
 11
1199.0733859731481
 21
1611.313914826271
  0
LINE
  8
_0-0_0
  6
CONTINUOUS
 62
    7
 10
1199.0733859731481
 20
1611.313914826271
 11
1181.7584236931812
 21
1628.515921576118
  0
LINE
  8
_0-0_0
  6
CONTINUOUS
 62
    7
 10
1181.7584236931812
 20
1628.515921576118
 11
1181.7584236931812
 21
1722.2975118339391
  0
LINE
  8
_0-0_0
  6
CONTINUOUS
 62
    7
 10
1181.7584236931812
 20
1722.2975118339391
 11
1199.0733859731481
 21
1739.5175500373909
  0
LINE
  8
_0-0_0
  6
CONTINUOUS
 62
    7
 10
1199.0733859731481
 20
1739.5175500373909
 11
1291.7102491565338
 21
1739.5175500373909
  0
LINE
  8
_0-0_0
  6
CONTINUOUS
 62
    7
 10
1291.7102491565338
 20
1739.5175500373909
 11
1309.3156091267228
 21
1722.2975118339391
  0
LINE
  8
_0-0_0
  6
CONTINUOUS
 62
    7
 10
1436.854644704624
 20
1722.2975118339391
 11
1436.854644704624
 21
1628.515921576118
  0
LINE
  8
_0-0_0
  6
CONTINUOUS
 62
    7
 10
1436.854644704624
 20
1628.515921576118
 11
1419.1948351675101
 21
1611.313914826271
  0
LINE
  8
_0-0_0
  6
CONTINUOUS
 62
    7
 10
1419.1948351675101
 20
1611.313914826271
 11
1326.576121839779
 21
1611.313914826271
  0
LINE
  8
_0-0_0
  6
CONTINUOUS
 62
    7
 10
1326.576121839779
 20
1611.313914826271
 11
1309.2611595597982
 21
1628.515921576118
  0
LINE
  8
_0-0_0
  6
CONTINUOUS
 62
    7
 10
1309.2611595597982
 20
1628.515921576118
 11
1309.2611595597982
 21
1722.2975118339391
  0
LINE
  8
_0-0_0
  6
CONTINUOUS
 62
    7
 10
1309.2611595597982
 20
1722.2975118339391
 11
1326.576121839779
 21
1739.5175500373909
  0
LINE
  8
_0-0_0
  6
CONTINUOUS
 62
    7
 10
1326.576121839779
 20
1739.5175500373909
 11
1419.1948351675101
 21
1739.5175500373909
  0
LINE
  8
_0-0_0
  6
CONTINUOUS
 62
    7
 10
1419.1948351675101
 20
1739.5175500373909
 11
1436.854644704624
 21
1722.2975118339391
  0
LINE
  8
_0-0_0
  6
CONTINUOUS
 62
    7
 10
1564.321080859987
 20
1722.2975118339391
 11
1564.321080859987
 21
1628.515921576118
  0
LINE
  8
_0-0_0
  6
CONTINUOUS
 62
    7
 10
1564.321080859987
 20
1628.515921576118
 11
1546.6794211785141
 21
1611.313914826271
  0
LINE
  8
_0-0_0
  6
CONTINUOUS
 62
    7
 10
1546.6794211785141
 20
1611.313914826271
 11
1454.1151574176799
 21
1611.313914826271
  0
LINE
  8
_0-0_0
  6
CONTINUOUS
 62
    7
 10
1454.1151574176799
 20
1611.313914826271
 11
1436.7638954264439
 21
1628.515921576118
  0
LINE
  8
_0-0_0
  6
CONTINUOUS
 62
    7
 10
1436.7638954264439
 20
1628.515921576118
 11
1436.7638954264439
 21
1722.2975118339391
  0
LINE
  8
_0-0_0
  6
CONTINUOUS
 62
    7
 10
1436.7638954264439
 20
1722.2975118339391
 11
1454.1151574176799
 21
1739.5175500373909
  0
LINE
  8
_0-0_0
  6
CONTINUOUS
 62
    7
 10
1454.1151574176799
 20
1739.5175500373909
 11
1546.6794211785141
 21
1739.5175500373909
  0
LINE
  8
_0-0_0
  6
CONTINUOUS
 62
    7
 10
1546.6794211785141
 20
1739.5175500373909
 11
1564.321080859987
 21
1722.2975118339391
  0
LINE
  8
_0-0_0
  6
CONTINUOUS
 62
    7
 10
1691.878266293528
 20
1722.2975118339391
 11
1691.878266293528
 21
1628.515921576118
  0
LINE
  8
_0-0_0
  6
CONTINUOUS
 62
    7
 10
1691.878266293528
 20
1628.515921576118
 11
1674.2366066120558
 21
1611.313914826271
  0
LINE
  8
_0-0_0
  6
CONTINUOUS
 62
    7
 10
1674.2366066120558
 20
1611.313914826271
 11
1581.636043139953
 21
1611.313914826271
  0
LINE
  8
_0-0_0
  6
CONTINUOUS
 62
    7
 10
1581.636043139953
 20
1611.313914826271
 11
1564.2847811487031
 21
1628.515921576118
  0
LINE
  8
_0-0_0
  6
CONTINUOUS
 62
    7
 10
1564.2847811487031
 20
1628.515921576118
 11
1564.2847811487031
 21
1722.2975118339391
  0
LINE
  8
_0-0_0
  6
CONTINUOUS
 62
    7
 10
1564.2847811487031
 20
1722.2975118339391
 11
1581.636043139953
 21
1739.5175500373909
  0
LINE
  8
_0-0_0
  6
CONTINUOUS
 62
    7
 10
1581.636043139953
 20
1739.5175500373909
 11
1674.2366066120558
 21
1739.5175500373909
  0
LINE
  8
_0-0_0
  6
CONTINUOUS
 62
    7
 10
1674.2366066120558
 20
1739.5175500373909
 11
1691.878266293528
 21
1722.2975118339391
  0
LINE
  8
_0-0_0
  6
CONTINUOUS
 62
    7
 10
1819.399152015802
 20
1722.2975118339391
 11
1819.399152015802
 21
1628.515921576118
  0
LINE
  8
_0-0_0
  6
CONTINUOUS
 62
    7
 10
1819.399152015802
 20
1628.515921576118
 11
1801.7393424786869
 21
1611.313914826271
  0
LINE
  8
_0-0_0
  6
CONTINUOUS
 62
    7
 10
1801.7393424786869
 20
1611.313914826271
 11
1709.1387790065701
 21
1611.313914826271
  0
LINE
  8
_0-0_0
  6
CONTINUOUS
 62
    7
 10
1709.1387790065701
 20
1611.313914826271
 11
1691.7875170153347
 21
1628.515921576118
  0
LINE
  8
_0-0_0
  6
CONTINUOUS
 62
    7
 10
1691.7875170153347
 20
1628.515921576118
 11
1691.7875170153347
 21
1722.2975118339391
  0
LINE
  8
_0-0_0
  6
CONTINUOUS
 62
    7
 10
1691.7875170153347
 20
1722.2975118339391
 11
1709.1387790065701
 21
1739.5175500373909
  0
LINE
  8
_0-0_0
  6
CONTINUOUS
 62
    7
 10
1709.1387790065701
 20
1739.5175500373909
 11
1801.7393424786869
 21
1739.5175500373909
  0
LINE
  8
_0-0_0
  6
CONTINUOUS
 62
    7
 10
1801.7393424786869
 20
1739.5175500373909
 11
1819.399152015802
 21
1722.2975118339391
  0
LINE
  8
_0-0_0
  6
CONTINUOUS
 62
    7
 10
1946.883738026791
 20
1722.2975118339391
 11
1946.883738026791
 21
1628.515921576118
  0
LINE
  8
_0-0_0
  6
CONTINUOUS
 62
    7
 10
1946.883738026791
 20
1628.515921576118
 11
1929.242078345304
 21
1611.313914826271
  0
LINE
  8
_0-0_0
  6
CONTINUOUS
 62
    7
 10
1929.242078345304
 20
1611.313914826271
 11
1836.6415148732158
 21
1611.313914826271
  0
LINE
  8
_0-0_0
  6
CONTINUOUS
 62
    7
 10
1836.6415148732158
 20
1611.313914826271
 11
1819.326552593235
 21
1628.515921576118
  0
LINE
  8
_0-0_0
  6
CONTINUOUS
 62
    7
 10
1819.326552593235
 20
1628.515921576118
 11
1819.326552593235
 21
1722.2975118339391
  0
LINE
  8
_0-0_0
  6
CONTINUOUS
 62
    7
 10
1819.326552593235
 20
1722.2975118339391
 11
1836.6415148732158
 21
1739.5175500373909
  0
LINE
  8
_0-0_0
  6
CONTINUOUS
 62
    7
 10
1836.6415148732158
 20
1739.5175500373909
 11
1929.242078345304
 21
1739.5175500373909
  0
LINE
  8
_0-0_0
  6
CONTINUOUS
 62
    7
 10
1929.242078345304
 20
1739.5175500373909
 11
1946.883738026791
 21
1722.2975118339391
  0
LINE
  8
_0-0_0
  6
CONTINUOUS
 62
    7
 10
2074.4046237490502
 20
1722.2975118339391
 11
2074.4046237490502
 21
1628.515921576118
  0
LINE
  8
_0-0_0
  6
CONTINUOUS
 62
    7
 10
2074.4046237490502
 20
1628.515921576118
 11
2056.7629640675782
 21
1611.313914826271
  0
LINE
  8
_0-0_0
  6
CONTINUOUS
 62
    7
 10
2056.7629640675782
 20
1611.313914826271
 11
1964.162400595475
 21
1611.313914826271
  0
LINE
  8
_0-0_0
  6
CONTINUOUS
 62
    7
 10
1964.162400595475
 20
1611.313914826271
 11
1946.847438315508
 21
1628.515921576118
  0
LINE
  8
_0-0_0
  6
CONTINUOUS
 62
    7
 10
1946.847438315508
 20
1628.515921576118
 11
1946.847438315508
 21
1722.2975118339391
  0
LINE
  8
_0-0_0
  6
CONTINUOUS
 62
    7
 10
1946.847438315508
 20
1722.2975118339391
 11
1964.162400595475
 21
1739.5175500373909
  0
LINE
  8
_0-0_0
  6
CONTINUOUS
 62
    7
 10
1964.162400595475
 20
1739.5175500373909
 11
2056.7629640675782
 21
1739.5175500373909
  0
LINE
  8
_0-0_0
  6
CONTINUOUS
 62
    7
 10
2056.7629640675782
 20
1739.5175500373909
 11
2074.4046237490502
 21
1722.2975118339391
  0
LINE
  8
_0-0_0
  6
CONTINUOUS
 62
    7
 10
2201.925509471308
 20
1722.2975118339391
 11
2201.925509471308
 21
1628.515921576118
  0
LINE
  8
_0-0_0
  6
CONTINUOUS
 62
    7
 10
2201.925509471308
 20
1628.515921576118
 11
2184.283849789836
 21
1611.313914826271
  0
LINE
  8
_0-0_0
  6
CONTINUOUS
 62
    7
 10
2184.283849789836
 20
1611.313914826271
 11
2091.6651364621061
 21
1611.313914826271
  0
LINE
  8
_0-0_0
  6
CONTINUOUS
 62
    7
 10
2091.6651364621061
 20
1611.313914826271
 11
2074.3501741821392
 21
1628.515921576118
  0
LINE
  8
_0-0_0
  6
CONTINUOUS
 62
    7
 10
2074.3501741821392
 20
1628.515921576118
 11
2074.3501741821392
 21
1722.2975118339391
  0
LINE
  8
_0-0_0
  6
CONTINUOUS
 62
    7
 10
2074.3501741821392
 20
1722.2975118339391
 11
2091.6651364621061
 21
1739.5175500373909
  0
LINE
  8
_0-0_0
  6
CONTINUOUS
 62
    7
 10
2091.6651364621061
 20
1739.5175500373909
 11
2184.283849789836
 21
1739.5175500373909
  0
LINE
  8
_0-0_0
  6
CONTINUOUS
 62
    7
 10
2184.283849789836
 20
1739.5175500373909
 11
2201.925509471308
 21
1722.2975118339391
  0
LINE
  8
_0-0_0
  6
CONTINUOUS
 62
    7
 10
2329.4463951935959
 20
1722.2975118339391
 11
2329.4463951935959
 21
1628.515921576118
  0
LINE
  8
_0-0_0
  6
CONTINUOUS
 62
    7
 10
2329.4463951935959
 20
1628.515921576118
 11
2311.768435800841
 21
1611.313914826271
  0
LINE
  8
_0-0_0
  6
CONTINUOUS
 62
    7
 10
2311.768435800841
 20
1611.313914826271
 11
2219.2041720400061
 21
1611.313914826271
  0
LINE
  8
_0-0_0
  6
CONTINUOUS
 62
    7
 10
2219.2041720400061
 20
1611.313914826271
 11
2201.8529100487708
 21
1628.515921576118
  0
LINE
  8
_0-0_0
  6
CONTINUOUS
 62
    7
 10
2201.8529100487708
 20
1628.515921576118
 11
2201.8529100487708
 21
1722.2975118339391
  0
LINE
  8
_0-0_0
  6
CONTINUOUS
 62
    7
 10
2201.8529100487708
 20
1722.2975118339391
 11
2219.2041720400061
 21
1739.5175500373909
  0
LINE
  8
_0-0_0
  6
CONTINUOUS
 62
    7
 10
2219.2041720400061
 20
1739.5175500373909
 11
2311.768435800841
 21
1739.5175500373909
  0
LINE
  8
_0-0_0
  6
CONTINUOUS
 62
    7
 10
2311.768435800841
 20
1739.5175500373909
 11
2329.4463951935959
 21
1722.2975118339391
  0
LINE
  8
_0-0_0
  6
CONTINUOUS
 62
    7
 10
2660.9662797050978
 20
1596.888751933318
 11
2660.9662797050978
 21
2394.888751933318
  0
LINE
  8
_0-0_0
  6
CONTINUOUS
 62
    7
 10
2678.9662797050978
 20
2394.888751933318
 11
2678.9662797050978
 21
1596.888751933318
  0
CIRCLE
  8
_0-0_0
  6
CONTINUOUS
 62
    7
 10
2673.9662797050978
 20
2195.888751933318
 40
2
  0
LINE
  8
_0-0_0
  6
CONTINUOUS
 62
    7
 10
2655.0200689511494
 20
1606.865625360655
 11
2655.4699464947089
 21
1607.365574763809
  0
LINE
  8
_0-0_0
  6
CONTINUOUS
 62
    7
 10
2655.4699464947089
 20
1607.365574763809
 11
2654.80980009927
 21
1608.0811886153831
  0
LINE
  8
_0-0_0
  6
CONTINUOUS
 62
    7
 10
2654.8049101259699
 20
1608.6987731722202
 11
2654.6973307133799
 21
1608.365473570118
  0
LINE
  8
_0-0_0
  6
CONTINUOUS
 62
    7
 10
2654.6973307133799
 20
1608.365473570118
 11
2654.8049101259699
 21
1608.0713856859093
  0
LINE
  8
_0-0_0
  6
CONTINUOUS
 62
    7
 10
2654.8049101259699
 20
1608.6987731722202
 11
2655.5237362010039
 21
1609.414387023794
  0
LINE
  8
_0-0_0
  6
CONTINUOUS
 62
    7
 10
2655.5237362010039
 20
1609.414387023794
 11
2655.0151789778511
 21
1609.86532177958
  0
LINE
  8
_0-0_0
  6
CONTINUOUS
 62
    7
 10
2655.0151789778511
 20
1609.86532177958
 11
2654.2963529028166
 21
1609.1987225753751
  0
LINE
  8
_0-0_0
  6
CONTINUOUS
 62
    7
 10
2653.6899962136722
 20
1609.2477372227429
 11
2654.022514398041
 21
1609.0810874216911
  0
LINE
  8
_0-0_0
  6
CONTINUOUS
 62
    7
 10
2654.022514398041
 20
1609.0810874216911
 11
2654.3012428761158
 21
1609.1987225753751
  0
LINE
  8
_0-0_0
  6
CONTINUOUS
 62
    7
 10
2653.6899962136722
 20
1609.2477372227429
 11
2652.9711701386391
 21
1609.9241393564221
  0
LINE
  8
_0-0_0
  6
CONTINUOUS
 62
    7
 10
2652.9711701386391
 20
1609.9241393564221
 11
2652.4772828353834
 21
1609.4732046006361
  0
LINE
  8
_0-0_0
  6
CONTINUOUS
 62
    7
 10
2652.4772828353834
 20
1609.4732046006361
 11
2653.1912189371187
 21
1608.7477878195889
  0
LINE
  8
_0-0_0
  6
CONTINUOUS
 62
    7
 10
2653.142319204122
 20
1608.0811886153831
 11
2653.3134682696068
 21
1608.414488217486
  0
LINE
  8
_0-0_0
  6
CONTINUOUS
 62
    7
 10
2653.3134682696068
 20
1608.414488217486
 11
2653.1912189371187
 21
1608.7477878195889
  0
LINE
  8
_0-0_0
  6
CONTINUOUS
 62
    7
 10
2653.142319204122
 20
1608.0811886153831
 11
2652.4821728086827
 21
1607.365574763809
  0
LINE
  8
_0-0_0
  6
CONTINUOUS
 62
    7
 10
2652.4821728086827
 20
1607.365574763809
 11
2652.9222704056428
 21
1606.9146400080231
  0
LINE
  8
_0-0_0
  6
CONTINUOUS
 62
    7
 10
2652.9222704056428
 20
1606.9146400080231
 11
2653.631316534078
 21
1607.5812392122291
  0
LINE
  8
_0-0_0
  6
CONTINUOUS
 62
    7
 10
2654.2963529028166
 20
1607.5812392122291
 11
2653.9638347184464
 21
1607.6988743659122
  0
LINE
  8
_0-0_0
  6
CONTINUOUS
 62
    7
 10
2653.9638347184464
 20
1607.6988743659122
 11
2653.6362065073772
 21
1607.5812392122291
  0
LINE
  8
_0-0_0
  6
CONTINUOUS
 62
    7
 10
2655.0200689511494
 20
1606.865625360655
 11
2654.3012428761158
 21
1607.5812392122291
  0
LINE
  8
_0-0_0
  6
CONTINUOUS
 62
    7
 10
2653.3574780293029
 20
1608.0811886153831
 11
2653.1472091774222
 21
1608.0811886153831
  0
LINE
  8
_0-0_0
  6
CONTINUOUS
 62
    7
 10
2653.1912189371187
 20
1608.7477878195889
 11
2653.3623680026021
 21
1608.6987731722202
  0
LINE
  8
_0-0_0
  6
CONTINUOUS
 62
    7
 10
2653.3574780293029
 20
1608.0811886153831
 11
2653.382861744868
 21
1608.1102002943919
  0
LINE
  8
_0-0_0
  6
CONTINUOUS
 62
    7
 10
2653.382861744868
 20
1608.1102002943919
 11
2653.4064117204462
 21
1608.1384631385113
  0
LINE
  8
_0-0_0
  6
CONTINUOUS
 62
    7
 10
2653.4064117204462
 20
1608.1384631385113
 11
2653.4280770188161
 21
1608.1660452236388
  0
LINE
  8
_0-0_0
  6
CONTINUOUS
 62
    7
 10
2653.4280770188161
 20
1608.1660452236388
 11
2653.447806702753
 21
1608.1930146256741
  0
LINE
  8
_0-0_0
  6
CONTINUOUS
 62
    7
 10
2653.447806702753
 20
1608.1930146256741
 11
2653.4655498350376
 21
1608.2194394205169
  0
LINE
  8
_0-0_0
  6
CONTINUOUS
 62
    7
 10
2653.4655498350376
 20
1608.2194394205169
 11
2653.481255478448
 21
1608.2453876840659
  0
LINE
  8
_0-0_0
  6
CONTINUOUS
 62
    7
 10
2653.481255478448
 20
1608.2453876840659
 11
2653.4948726957609
 21
1608.2709274922199
  0
LINE
  8
_0-0_0
  6
CONTINUOUS
 62
    7
 10
2653.4948726957609
 20
1608.2709274922199
 11
2653.506350549756
 21
1608.296126920879
  0
LINE
  8
_0-0_0
  6
CONTINUOUS
 62
    7
 10
2653.506350549756
 20
1608.296126920879
 11
2653.5156381032102
 21
1608.3210540459399
  0
LINE
  8
_0-0_0
  6
CONTINUOUS
 62
    7
 10
2653.5156381032102
 20
1608.3210540459399
 11
2653.5226844189019
 21
1608.3457769433051
  0
LINE
  8
_0-0_0
  6
CONTINUOUS
 62
    7
 10
2653.5226844189019
 20
1608.3457769433051
 11
2653.5274385596094
 21
1608.370363688872
  0
LINE
  8
_0-0_0
  6
CONTINUOUS
 62
    7
 10
2653.5274385596094
 20
1608.370363688872
 11
2653.529849588112
 21
1608.3948823585383
  0
LINE
  8
_0-0_0
  6
CONTINUOUS
 62
    7
 10
2653.529849588112
 20
1608.3948823585383
 11
2653.5298665671862
 21
1608.4194010282063
  0
LINE
  8
_0-0_0
  6
CONTINUOUS
 62
    7
 10
2653.5298665671862
 20
1608.4194010282063
 11
2653.5274385596108
 21
1608.4439877737718
  0
LINE
  8
_0-0_0
  6
CONTINUOUS
 62
    7
 10
2653.5274385596108
 20
1608.4439877737718
 11
2653.5225146281628
 21
1608.4687106711367
  0
LINE
  8
_0-0_0
  6
CONTINUOUS
 62
    7
 10
2653.5225146281628
 20
1608.4687106711367
 11
2653.5150438356222
 21
1608.493637796199
  0
LINE
  8
_0-0_0
  6
CONTINUOUS
 62
    7
 10
2653.5150438356222
 20
1608.493637796199
 11
2653.5049752447658
 21
1608.518837224857
  0
LINE
  8
_0-0_0
  6
CONTINUOUS
 62
    7
 10
2653.5049752447658
 20
1608.518837224857
 11
2653.4922579183722
 21
1608.544377033011
  0
LINE
  8
_0-0_0
  6
CONTINUOUS
 62
    7
 10
2653.4922579183722
 20
1608.544377033011
 11
2653.4768409192193
 21
1608.57032529656
  0
LINE
  8
_0-0_0
  6
CONTINUOUS
 62
    7
 10
2653.4768409192193
 20
1608.57032529656
 11
2653.458673310085
 21
1608.596750091403
  0
LINE
  8
_0-0_0
  6
CONTINUOUS
 62
    7
 10
2653.458673310085
 20
1608.596750091403
 11
2653.4377041537491
 21
1608.6237194934381
  0
LINE
  8
_0-0_0
  6
CONTINUOUS
 62
    7
 10
2653.4377041537491
 20
1608.6237194934381
 11
2653.4138825129876
 21
1608.6513015785661
  0
LINE
  8
_0-0_0
  6
CONTINUOUS
 62
    7
 10
2653.4138825129876
 20
1608.6513015785661
 11
2653.3871574505788
 21
1608.679564422685
  0
LINE
  8
_0-0_0
  6
CONTINUOUS
 62
    7
 10
2653.3871574505788
 20
1608.679564422685
 11
2653.3574780293029
 21
1608.708576101694
  0
LINE
  8
_0-0_0
  6
CONTINUOUS
 62
    7
 10
2653.6899962136722
 20
1609.0320727743231
 11
2653.6899962136722
 21
1609.2379342932691
  0
LINE
  8
_0-0_0
  6
CONTINUOUS
 62
    7
 10
2654.2963529028166
 20
1609.1987225753751
 11
2654.2963529028166
 21
1608.9732551974812
  0
LINE
  8
_0-0_0
  6
CONTINUOUS
 62
    7
 10
2653.6899962136722
 20
1609.0320727743231
 11
2653.7117386253349
 21
1609.005108336155
  0
LINE
  8
_0-0_0
  6
CONTINUOUS
 62
    7
 10
2653.7117386253349
 20
1609.005108336155
 11
2653.7341474656514
 21
1608.9805563376631
  0
LINE
  8
_0-0_0
  6
CONTINUOUS
 62
    7
 10
2653.7341474656514
 20
1608.9805563376631
 11
2653.7571760421661
 21
1608.958378486152
  0
LINE
  8
_0-0_0
  6
CONTINUOUS
 62
    7
 10
2653.7571760421661
 20
1608.958378486152
 11
2653.7807776624281
 21
1608.938536488929
  0
LINE
  8
_0-0_0
  6
CONTINUOUS
 62
    7
 10
2653.7807776624281
 20
1608.938536488929
 11
2653.804905633981
 21
1608.9209920533019
  0
LINE
  8
_0-0_0
  6
CONTINUOUS
 62
    7
 10
2653.804905633981
 20
1608.9209920533019
 11
2653.8295132643748
 21
1608.9057068865779
  0
LINE
  8
_0-0_0
  6
CONTINUOUS
 62
    7
 10
2653.8295132643748
 20
1608.9057068865779
 11
2653.8545538611538
 21
1608.892642696062
  0
LINE
  8
_0-0_0
  6
CONTINUOUS
 62
    7
 10
2653.8545538611538
 20
1608.892642696062
 11
2653.8799807318665
 21
1608.8817611890618
  0
LINE
  8
_0-0_0
  6
CONTINUOUS
 62
    7
 10
2653.8799807318665
 20
1608.8817611890618
 11
2653.905747184057
 21
1608.8730240728839
  0
LINE
  8
_0-0_0
  6
CONTINUOUS
 62
    7
 10
2653.905747184057
 20
1608.8730240728839
 11
2653.9318065252728
 21
1608.866393054835
  0
LINE
  8
_0-0_0
  6
CONTINUOUS
 62
    7
 10
2653.9318065252728
 20
1608.866393054835
 11
2653.9581120630619
 21
1608.8618298422211
  0
LINE
  8
_0-0_0
  6
CONTINUOUS
 62
    7
 10
2653.9581120630619
 20
1608.8618298422211
 11
2653.9846171049699
 21
1608.859296142351
  0
LINE
  8
_0-0_0
  6
CONTINUOUS
 62
    7
 10
2653.9846171049699
 20
1608.859296142351
 11
2654.0112749585428
 21
1608.85875366253
  0
LINE
  8
_0-0_0
  6
CONTINUOUS
 62
    7
 10
2654.0112749585428
 20
1608.85875366253
 11
2654.03803893133
 21
1608.8601641100649
  0
LINE
  8
_0-0_0
  6
CONTINUOUS
 62
    7
 10
2654.03803893133
 20
1608.8601641100649
 11
2654.0648623308739
 21
1608.863489192262
  0
LINE
  8
_0-0_0
  6
CONTINUOUS
 62
    7
 10
2654.0648623308739
 20
1608.863489192262
 11
2654.0916984647238
 21
1608.8686906164301
  0
LINE
  8
_0-0_0
  6
CONTINUOUS
 62
    7
 10
2654.0916984647238
 20
1608.8686906164301
 11
2654.1185006404271
 21
1608.875730089874
  0
LINE
  8
_0-0_0
  6
CONTINUOUS
 62
    7
 10
2654.1185006404271
 20
1608.875730089874
 11
2654.1452221655263
 21
1608.8845693199
  0
LINE
  8
_0-0_0
  6
CONTINUOUS
 62
    7
 10
2654.1452221655263
 20
1608.8845693199
 11
2654.171816347573
 21
1608.8951700138159
  0
LINE
  8
_0-0_0
  6
CONTINUOUS
 62
    7
 10
2654.171816347573
 20
1608.8951700138159
 11
2654.1982364941114
 21
1608.907493878929
  0
LINE
  8
_0-0_0
  6
CONTINUOUS
 62
    7
 10
2654.1982364941114
 20
1608.907493878929
 11
2654.224435912688
 21
1608.9215026225461
  0
LINE
  8
_0-0_0
  6
CONTINUOUS
 62
    7
 10
2654.224435912688
 20
1608.9215026225461
 11
2654.2503679108499
 21
1608.937157951972
  0
LINE
  8
_0-0_0
  6
CONTINUOUS
 62
    7
 10
2654.2503679108499
 20
1608.937157951972
 11
2654.2759857961441
 21
1608.954421574515
  0
LINE
  8
_0-0_0
  6
CONTINUOUS
 62
    7
 10
2654.2759857961441
 20
1608.954421574515
 11
2654.3012428761158
 21
1608.9732551974812
  0
LINE
  8
_0-0_0
  6
CONTINUOUS
 62
    7
 10
2654.579971354191
 20
1608.6987731722202
 11
2654.8000201526711
 21
1608.6987731722202
  0
LINE
  8
_0-0_0
  6
CONTINUOUS
 62
    7
 10
2654.8049101259699
 20
1608.0811886153831
 11
2654.5848613274902
 21
1608.0811886153831
  0
LINE
  8
_0-0_0
  6
CONTINUOUS
 62
    7
 10
2654.579971354191
 20
1608.6987731722202
 11
2654.561812234595
 21
1608.675192673538
  0
LINE
  8
_0-0_0
  6
CONTINUOUS
 62
    7
 10
2654.561812234595
 20
1608.675192673538
 11
2654.5452321688758
 21
1608.6510462939441
  0
LINE
  8
_0-0_0
  6
CONTINUOUS
 62
    7
 10
2654.5452321688758
 20
1608.6510462939441
 11
2654.5302311570349
 21
1608.6263808356191
  0
LINE
  8
_0-0_0
  6
CONTINUOUS
 62
    7
 10
2654.5302311570349
 20
1608.6263808356191
 11
2654.5168091990722
 21
1608.601243100745
  0
LINE
  8
_0-0_0
  6
CONTINUOUS
 62
    7
 10
2654.5168091990722
 20
1608.601243100745
 11
2654.5049662949868
 21
1608.5756798914999
  0
LINE
  8
_0-0_0
  6
CONTINUOUS
 62
    7
 10
2654.5049662949868
 20
1608.5756798914999
 11
2654.4947024447802
 21
1608.5497380100669
  0
LINE
  8
_0-0_0
  6
CONTINUOUS
 62
    7
 10
2654.4947024447802
 20
1608.5497380100669
 11
2654.4860176484508
 21
1608.5234642586249
  0
LINE
  8
_0-0_0
  6
CONTINUOUS
 62
    7
 10
2654.4860176484508
 20
1608.5234642586249
 11
2654.4789119059997
 21
1608.4969054393559
  0
LINE
  8
_0-0_0
  6
CONTINUOUS
 62
    7
 10
2654.4789119059997
 20
1608.4969054393559
 11
2654.4733852174272
 21
1608.470108354441
  0
LINE
  8
_0-0_0
  6
CONTINUOUS
 62
    7
 10
2654.4733852174272
 20
1608.470108354441
 11
2654.469437582733
 21
1608.4431198060579
  0
LINE
  8
_0-0_0
  6
CONTINUOUS
 62
    7
 10
2654.469437582733
 20
1608.4431198060579
 11
2654.4670690019161
 21
1608.41598659639
  0
LINE
  8
_0-0_0
  6
CONTINUOUS
 62
    7
 10
2654.4670690019161
 20
1608.41598659639
 11
2654.466279474977
 21
1608.3887555276169
  0
LINE
  8
_0-0_0
  6
CONTINUOUS
 62
    7
 10
2654.466279474977
 20
1608.3887555276169
 11
2654.4670690019161
 21
1608.3614734019197
  0
LINE
  8
_0-0_0
  6
CONTINUOUS
 62
    7
 10
2654.4670690019161
 20
1608.3614734019197
 11
2654.4694375827321
 21
1608.334187021479
  0
LINE
  8
_0-0_0
  6
CONTINUOUS
 62
    7
 10
2654.4694375827321
 20
1608.334187021479
 11
2654.4733852174286
 21
1608.3069431884751
  0
LINE
  8
_0-0_0
  6
CONTINUOUS
 62
    7
 10
2654.4733852174286
 20
1608.3069431884751
 11
2654.4789119059997
 21
1608.279788705089
  0
LINE
  8
_0-0_0
  6
CONTINUOUS
 62
    7
 10
2654.4789119059997
 20
1608.279788705089
 11
2654.4860176484517
 21
1608.2527703735011
  0
LINE
  8
_0-0_0
  6
CONTINUOUS
 62
    7
 10
2654.4860176484517
 20
1608.2527703735011
 11
2654.4947024447802
 21
1608.225934995892
  0
LINE
  8
_0-0_0
  6
CONTINUOUS
 62
    7
 10
2654.4947024447802
 20
1608.225934995892
 11
2654.5049662949868
 21
1608.1993293744422
  0
LINE
  8
_0-0_0
  6
CONTINUOUS
 62
    7
 10
2654.5049662949868
 20
1608.1993293744422
 11
2654.5168091990722
 21
1608.1730003113321
  0
LINE
  8
_0-0_0
  6
CONTINUOUS
 62
    7
 10
2654.5168091990722
 20
1608.1730003113321
 11
2654.5302311570349
 21
1608.1469946087441
  0
LINE
  8
_0-0_0
  6
CONTINUOUS
 62
    7
 10
2654.5302311570349
 20
1608.1469946087441
 11
2654.5452321688749
 21
1608.121359068856
  0
LINE
  8
_0-0_0
  6
CONTINUOUS
 62
    7
 10
2654.5452321688749
 20
1608.121359068856
 11
2654.5618122345941
 21
1608.096140493851
  0
LINE
  8
_0-0_0
  6
CONTINUOUS
 62
    7
 10
2654.5618122345941
 20
1608.096140493851
 11
2654.579971354191
 21
1608.0713856859093
  0
LINE
  8
_0-0_0
  6
CONTINUOUS
 62
    7
 10
2654.2963529028166
 20
1607.7478890132802
 11
2654.2963529028166
 21
1607.5812392122291
  0
LINE
  8
_0-0_0
  6
CONTINUOUS
 62
    7
 10
2653.631316534078
 20
1607.5812392122291
 11
2653.631316534078
 21
1607.8067065901221
  0
LINE
  8
_0-0_0
  6
CONTINUOUS
 62
    7
 10
2654.2963529028166
 20
1607.7478890132802
 11
2654.257233116421
 21
1607.8067065901221
  0
LINE
  8
_0-0_0
  6
CONTINUOUS
 62
    7
 10
2654.257233116421
 20
1607.8067065901221
 11
2654.14476373053
 21
1607.865524166964
  0
LINE
  8
_0-0_0
  6
CONTINUOUS
 62
    7
 10
2654.14476373053
 20
1607.865524166964
 11
2654.0860840509358
 21
1607.914538814332
  0
LINE
  8
_0-0_0
  6
CONTINUOUS
 62
    7
 10
2654.0860840509358
 20
1607.914538814332
 11
2653.9149349854515
 21
1607.914538814332
  0
LINE
  8
_0-0_0
  6
CONTINUOUS
 62
    7
 10
2653.9149349854515
 20
1607.914538814332
 11
2653.807355572862
 21
1607.865524166964
  0
LINE
  8
_0-0_0
  6
CONTINUOUS
 62
    7
 10
2653.807355572862
 20
1607.865524166964
 11
2653.7535658665674
 21
1607.865524166964
  0
LINE
  8
_0-0_0
  6
CONTINUOUS
 62
    7
 10
2653.7535658665674
 20
1607.865524166964
 11
2653.6362065073772
 21
1607.8067065901221
  0
LINE
  8
_0-0_0
  6
CONTINUOUS
 62
    7
 10
2652.9662801653385
 20
1609.9241393564221
 11
2652.9662801653385
 21
1609.7476866258969
  0
LINE
  8
_0-0_0
  6
CONTINUOUS
 62
    7
 10
2652.9662801653385
 20
1609.7476866258969
 11
2653.685106240373
 21
1609.0320727743231
  0
LINE
  8
_0-0_0
  6
CONTINUOUS
 62
    7
 10
2652.4772828353834
 20
1609.4732046006361
 11
2652.6875516872651
 21
1609.414387023794
  0
LINE
  8
_0-0_0
  6
CONTINUOUS
 62
    7
 10
2652.6875516872651
 20
1609.414387023794
 11
2653.3574780293029
 21
1608.6987731722202
  0
LINE
  8
_0-0_0
  6
CONTINUOUS
 62
    7
 10
2655.4699464947089
 20
1607.365574763809
 11
2655.2890174826262
 21
1607.365574763809
  0
LINE
  8
_0-0_0
  6
CONTINUOUS
 62
    7
 10
2655.2890174826262
 20
1607.365574763809
 11
2654.579971354191
 21
1608.0811886153831
  0
LINE
  8
_0-0_0
  6
CONTINUOUS
 62
    7
 10
2655.528626174304
 20
1609.414387023794
 11
2655.298797429225
 21
1609.414387023794
  0
LINE
  8
_0-0_0
  6
CONTINUOUS
 62
    7
 10
2655.298797429225
 20
1609.414387023794
 11
2654.579971354191
 21
1608.6987731722202
  0
LINE
  8
_0-0_0
  6
CONTINUOUS
 62
    7
 10
2652.9173804323432
 20
1606.9146400080231
 11
2652.9173804323432
 21
1607.0812898090751
  0
LINE
  8
_0-0_0
  6
CONTINUOUS
 62
    7
 10
2652.9173804323432
 20
1607.0812898090751
 11
2653.6264265607779
 21
1607.8067065901221
  0
LINE
  8
_0-0_0
  6
CONTINUOUS
 62
    7
 10
2655.0200689511494
 20
1609.86532177958
 11
2655.0200689511494
 21
1609.6986719785291
  0
LINE
  8
_0-0_0
  6
CONTINUOUS
 62
    7
 10
2655.0200689511494
 20
1609.6986719785291
 11
2654.3012428761158
 21
1608.9732551974812
  0
LINE
  8
_0-0_0
  6
CONTINUOUS
 62
    7
 10
2652.4772828353834
 20
1607.365574763809
 11
2652.6386519542689
 21
1607.365574763809
  0
LINE
  8
_0-0_0
  6
CONTINUOUS
 62
    7
 10
2652.6386519542689
 20
1607.365574763809
 11
2653.3574780293029
 21
1608.0811886153831
  0
LINE
  8
_0-0_0
  6
CONTINUOUS
 62
    7
 10
2655.0200689511494
 20
1606.865625360655
 11
2655.0200689511494
 21
1607.032275161707
  0
LINE
  8
_0-0_0
  6
CONTINUOUS
 62
    7
 10
2655.0200689511494
 20
1607.032275161707
 11
2654.3012428761158
 21
1607.7478890132802
  0
LINE
  8
_0-0_0
  6
CONTINUOUS
 62
    7
 10
2655.0200689511494
 20
1607.032275161707
 11
2655.2890174826262
 21
1607.365574763809
  0
LINE
  8
_0-0_0
  6
CONTINUOUS
 62
    7
 10
2655.2939074559249
 20
1609.414387023794
 11
2655.0249589244499
 21
1609.6986719785291
  0
LINE
  8
_0-0_0
  6
CONTINUOUS
 62
    7
 10
2652.6337619809692
 20
1607.365574763809
 11
2652.912490459044
 21
1607.0812898090751
  0
LINE
  8
_0-0_0
  6
CONTINUOUS
 62
    7
 10
2652.9662801653385
 20
1609.7476866258969
 11
2652.6973316338635
 21
1609.414387023794
  0
LINE
  8
_0-0_0
  6
CONTINUOUS
 62
    7
 10
2686.0200689511498
 20
1606.865625360655
 11
2686.4699464947089
 21
1607.365574763809
  0
LINE
  8
_0-0_0
  6
CONTINUOUS
 62
    7
 10
2686.4699464947089
 20
1607.365574763809
 11
2685.8098000992695
 21
1608.0811886153831
  0
LINE
  8
_0-0_0
  6
CONTINUOUS
 62
    7
 10
2685.8049101259703
 20
1608.6987731722202
 11
2685.6973307133794
 21
1608.365473570118
  0
LINE
  8
_0-0_0
  6
CONTINUOUS
 62
    7
 10
2685.6973307133794
 20
1608.365473570118
 11
2685.8049101259703
 21
1608.0713856859093
  0
LINE
  8
_0-0_0
  6
CONTINUOUS
 62
    7
 10
2685.8049101259703
 20
1608.6987731722202
 11
2686.5237362010039
 21
1609.414387023794
  0
LINE
  8
_0-0_0
  6
CONTINUOUS
 62
    7
 10
2686.5237362010039
 20
1609.414387023794
 11
2686.0151789778511
 21
1609.86532177958
  0
LINE
  8
_0-0_0
  6
CONTINUOUS
 62
    7
 10
2686.0151789778511
 20
1609.86532177958
 11
2685.296352902817
 21
1609.1987225753751
  0
LINE
  8
_0-0_0
  6
CONTINUOUS
 62
    7
 10
2684.6899962136722
 20
1609.2477372227429
 11
2685.0225143980415
 21
1609.0810874216911
  0
LINE
  8
_0-0_0
  6
CONTINUOUS
 62
    7
 10
2685.0225143980415
 20
1609.0810874216911
 11
2685.3012428761158
 21
1609.1987225753751
  0
LINE
  8
_0-0_0
  6
CONTINUOUS
 62
    7
 10
2684.6899962136722
 20
1609.2477372227429
 11
2683.9711701386391
 21
1609.9241393564221
  0
LINE
  8
_0-0_0
  6
CONTINUOUS
 62
    7
 10
2683.9711701386391
 20
1609.9241393564221
 11
2683.477282835383
 21
1609.4732046006361
  0
LINE
  8
_0-0_0
  6
CONTINUOUS
 62
    7
 10
2683.477282835383
 20
1609.4732046006361
 11
2684.1912189371192
 21
1608.7477878195889
  0
LINE
  8
_0-0_0
  6
CONTINUOUS
 62
    7
 10
2684.142319204122
 20
1608.0811886153831
 11
2684.3134682696068
 21
1608.414488217486
  0
LINE
  8
_0-0_0
  6
CONTINUOUS
 62
    7
 10
2684.3134682696068
 20
1608.414488217486
 11
2684.1912189371192
 21
1608.7477878195889
  0
LINE
  8
_0-0_0
  6
CONTINUOUS
 62
    7
 10
2684.142319204122
 20
1608.0811886153831
 11
2683.4821728086831
 21
1607.365574763809
  0
LINE
  8
_0-0_0
  6
CONTINUOUS
 62
    7
 10
2683.4821728086831
 20
1607.365574763809
 11
2683.9222704056428
 21
1606.9146400080231
  0
LINE
  8
_0-0_0
  6
CONTINUOUS
 62
    7
 10
2683.9222704056428
 20
1606.9146400080231
 11
2684.631316534078
 21
1607.5812392122291
  0
LINE
  8
_0-0_0
  6
CONTINUOUS
 62
    7
 10
2685.296352902817
 20
1607.5812392122291
 11
2684.9638347184459
 21
1607.6988743659122
  0
LINE
  8
_0-0_0
  6
CONTINUOUS
 62
    7
 10
2684.9638347184459
 20
1607.6988743659122
 11
2684.6362065073772
 21
1607.5812392122291
  0
LINE
  8
_0-0_0
  6
CONTINUOUS
 62
    7
 10
2686.0200689511498
 20
1606.865625360655
 11
2685.3012428761158
 21
1607.5812392122291
  0
LINE
  8
_0-0_0
  6
CONTINUOUS
 62
    7
 10
2684.3574780293029
 20
1608.0811886153831
 11
2684.1472091774222
 21
1608.0811886153831
  0
LINE
  8
_0-0_0
  6
CONTINUOUS
 62
    7
 10
2684.1912189371192
 20
1608.7477878195889
 11
2684.3623680026021
 21
1608.6987731722202
  0
LINE
  8
_0-0_0
  6
CONTINUOUS
 62
    7
 10
2684.3574780293029
 20
1608.0811886153831
 11
2684.382861744868
 21
1608.1102002943919
  0
LINE
  8
_0-0_0
  6
CONTINUOUS
 62
    7
 10
2684.382861744868
 20
1608.1102002943919
 11
2684.4064117204462
 21
1608.1384631385113
  0
LINE
  8
_0-0_0
  6
CONTINUOUS
 62
    7
 10
2684.4064117204462
 20
1608.1384631385113
 11
2684.4280770188161
 21
1608.1660452236388
  0
LINE
  8
_0-0_0
  6
CONTINUOUS
 62
    7
 10
2684.4280770188161
 20
1608.1660452236388
 11
2684.447806702753
 21
1608.1930146256741
  0
LINE
  8
_0-0_0
  6
CONTINUOUS
 62
    7
 10
2684.447806702753
 20
1608.1930146256741
 11
2684.465549835038
 21
1608.2194394205169
  0
LINE
  8
_0-0_0
  6
CONTINUOUS
 62
    7
 10
2684.465549835038
 20
1608.2194394205169
 11
2684.4812554784485
 21
1608.2453876840659
  0
LINE
  8
_0-0_0
  6
CONTINUOUS
 62
    7
 10
2684.4812554784485
 20
1608.2453876840659
 11
2684.4948726957609
 21
1608.2709274922199
  0
LINE
  8
_0-0_0
  6
CONTINUOUS
 62
    7
 10
2684.4948726957609
 20
1608.2709274922199
 11
2684.5063505497556
 21
1608.296126920879
  0
LINE
  8
_0-0_0
  6
CONTINUOUS
 62
    7
 10
2684.5063505497556
 20
1608.296126920879
 11
2684.5156381032102
 21
1608.3210540459399
  0
LINE
  8
_0-0_0
  6
CONTINUOUS
 62
    7
 10
2684.5156381032102
 20
1608.3210540459399
 11
2684.5226844189028
 21
1608.3457769433051
  0
LINE
  8
_0-0_0
  6
CONTINUOUS
 62
    7
 10
2684.5226844189028
 20
1608.3457769433051
 11
2684.5274385596099
 21
1608.370363688872
  0
LINE
  8
_0-0_0
  6
CONTINUOUS
 62
    7
 10
2684.5274385596099
 20
1608.370363688872
 11
2684.529849588112
 21
1608.3948823585383
  0
LINE
  8
_0-0_0
  6
CONTINUOUS
 62
    7
 10
2684.529849588112
 20
1608.3948823585383
 11
2684.5298665671871
 21
1608.4194010282063
  0
LINE
  8
_0-0_0
  6
CONTINUOUS
 62
    7
 10
2684.5298665671871
 20
1608.4194010282063
 11
2684.5274385596099
 21
1608.4439877737718
  0
LINE
  8
_0-0_0
  6
CONTINUOUS
 62
    7
 10
2684.5274385596099
 20
1608.4439877737718
 11
2684.5225146281632
 21
1608.4687106711367
  0
LINE
  8
_0-0_0
  6
CONTINUOUS
 62
    7
 10
2684.5225146281632
 20
1608.4687106711367
 11
2684.5150438356218
 21
1608.493637796199
  0
LINE
  8
_0-0_0
  6
CONTINUOUS
 62
    7
 10
2684.5150438356218
 20
1608.493637796199
 11
2684.5049752447658
 21
1608.518837224857
  0
LINE
  8
_0-0_0
  6
CONTINUOUS
 62
    7
 10
2684.5049752447658
 20
1608.518837224857
 11
2684.4922579183722
 21
1608.544377033011
  0
LINE
  8
_0-0_0
  6
CONTINUOUS
 62
    7
 10
2684.4922579183722
 20
1608.544377033011
 11
2684.4768409192188
 21
1608.57032529656
  0
LINE
  8
_0-0_0
  6
CONTINUOUS
 62
    7
 10
2684.4768409192188
 20
1608.57032529656
 11
2684.458673310085
 21
1608.596750091403
  0
LINE
  8
_0-0_0
  6
CONTINUOUS
 62
    7
 10
2684.458673310085
 20
1608.596750091403
 11
2684.4377041537491
 21
1608.6237194934381
  0
LINE
  8
_0-0_0
  6
CONTINUOUS
 62
    7
 10
2684.4377041537491
 20
1608.6237194934381
 11
2684.413882512988
 21
1608.6513015785661
  0
LINE
  8
_0-0_0
  6
CONTINUOUS
 62
    7
 10
2684.413882512988
 20
1608.6513015785661
 11
2684.3871574505788
 21
1608.679564422685
  0
LINE
  8
_0-0_0
  6
CONTINUOUS
 62
    7
 10
2684.3871574505788
 20
1608.679564422685
 11
2684.3574780293029
 21
1608.708576101694
  0
LINE
  8
_0-0_0
  6
CONTINUOUS
 62
    7
 10
2684.6899962136722
 20
1609.0320727743231
 11
2684.6899962136722
 21
1609.2379342932691
  0
LINE
  8
_0-0_0
  6
CONTINUOUS
 62
    7
 10
2685.296352902817
 20
1609.1987225753751
 11
2685.296352902817
 21
1608.9732551974812
  0
LINE
  8
_0-0_0
  6
CONTINUOUS
 62
    7
 10
2684.6899962136722
 20
1609.0320727743231
 11
2684.7117386253349
 21
1609.005108336155
  0
LINE
  8
_0-0_0
  6
CONTINUOUS
 62
    7
 10
2684.7117386253349
 20
1609.005108336155
 11
2684.7341474656509
 21
1608.9805563376631
  0
LINE
  8
_0-0_0
  6
CONTINUOUS
 62
    7
 10
2684.7341474656509
 20
1608.9805563376631
 11
2684.7571760421661
 21
1608.958378486152
  0
LINE
  8
_0-0_0
  6
CONTINUOUS
 62
    7
 10
2684.7571760421661
 20
1608.958378486152
 11
2684.7807776624277
 21
1608.938536488929
  0
LINE
  8
_0-0_0
  6
CONTINUOUS
 62
    7
 10
2684.7807776624277
 20
1608.938536488929
 11
2684.8049056339819
 21
1608.9209920533019
  0
LINE
  8
_0-0_0
  6
CONTINUOUS
 62
    7
 10
2684.8049056339819
 20
1608.9209920533019
 11
2684.8295132643752
 21
1608.9057068865779
  0
LINE
  8
_0-0_0
  6
CONTINUOUS
 62
    7
 10
2684.8295132643752
 20
1608.9057068865779
 11
2684.8545538611543
 21
1608.892642696062
  0
LINE
  8
_0-0_0
  6
CONTINUOUS
 62
    7
 10
2684.8545538611543
 20
1608.892642696062
 11
2684.879980731866
 21
1608.8817611890618
  0
LINE
  8
_0-0_0
  6
CONTINUOUS
 62
    7
 10
2684.879980731866
 20
1608.8817611890618
 11
2684.905747184057
 21
1608.8730240728839
  0
LINE
  8
_0-0_0
  6
CONTINUOUS
 62
    7
 10
2684.905747184057
 20
1608.8730240728839
 11
2684.9318065252728
 21
1608.866393054835
  0
LINE
  8
_0-0_0
  6
CONTINUOUS
 62
    7
 10
2684.9318065252728
 20
1608.866393054835
 11
2684.9581120630619
 21
1608.8618298422211
  0
LINE
  8
_0-0_0
  6
CONTINUOUS
 62
    7
 10
2684.9581120630619
 20
1608.8618298422211
 11
2684.9846171049699
 21
1608.859296142351
  0
LINE
  8
_0-0_0
  6
CONTINUOUS
 62
    7
 10
2684.9846171049699
 20
1608.859296142351
 11
2685.0112749585442
 21
1608.85875366253
  0
LINE
  8
_0-0_0
  6
CONTINUOUS
 62
    7
 10
2685.0112749585442
 20
1608.85875366253
 11
2685.03803893133
 21
1608.8601641100649
  0
LINE
  8
_0-0_0
  6
CONTINUOUS
 62
    7
 10
2685.03803893133
 20
1608.8601641100649
 11
2685.0648623308739
 21
1608.863489192262
  0
LINE
  8
_0-0_0
  6
CONTINUOUS
 62
    7
 10
2685.0648623308739
 20
1608.863489192262
 11
2685.0916984647238
 21
1608.8686906164301
  0
LINE
  8
_0-0_0
  6
CONTINUOUS
 62
    7
 10
2685.0916984647238
 20
1608.8686906164301
 11
2685.1185006404262
 21
1608.875730089874
  0
LINE
  8
_0-0_0
  6
CONTINUOUS
 62
    7
 10
2685.1185006404262
 20
1608.875730089874
 11
2685.1452221655268
 21
1608.8845693199
  0
LINE
  8
_0-0_0
  6
CONTINUOUS
 62
    7
 10
2685.1452221655268
 20
1608.8845693199
 11
2685.1718163475734
 21
1608.8951700138159
  0
LINE
  8
_0-0_0
  6
CONTINUOUS
 62
    7
 10
2685.1718163475734
 20
1608.8951700138159
 11
2685.1982364941109
 21
1608.907493878929
  0
LINE
  8
_0-0_0
  6
CONTINUOUS
 62
    7
 10
2685.1982364941109
 20
1608.907493878929
 11
2685.224435912688
 21
1608.9215026225461
  0
LINE
  8
_0-0_0
  6
CONTINUOUS
 62
    7
 10
2685.224435912688
 20
1608.9215026225461
 11
2685.2503679108495
 21
1608.937157951972
  0
LINE
  8
_0-0_0
  6
CONTINUOUS
 62
    7
 10
2685.2503679108495
 20
1608.937157951972
 11
2685.2759857961437
 21
1608.954421574515
  0
LINE
  8
_0-0_0
  6
CONTINUOUS
 62
    7
 10
2685.2759857961437
 20
1608.954421574515
 11
2685.3012428761158
 21
1608.9732551974812
  0
LINE
  8
_0-0_0
  6
CONTINUOUS
 62
    7
 10
2685.579971354191
 20
1608.6987731722202
 11
2685.8000201526711
 21
1608.6987731722202
  0
LINE
  8
_0-0_0
  6
CONTINUOUS
 62
    7
 10
2685.8049101259703
 20
1608.0811886153831
 11
2685.5848613274902
 21
1608.0811886153831
  0
LINE
  8
_0-0_0
  6
CONTINUOUS
 62
    7
 10
2685.579971354191
 20
1608.6987731722202
 11
2685.5618122345941
 21
1608.675192673538
  0
LINE
  8
_0-0_0
  6
CONTINUOUS
 62
    7
 10
2685.5618122345941
 20
1608.675192673538
 11
2685.5452321688749
 21
1608.6510462939441
  0
LINE
  8
_0-0_0
  6
CONTINUOUS
 62
    7
 10
2685.5452321688749
 20
1608.6510462939441
 11
2685.5302311570349
 21
1608.6263808356191
  0
LINE
  8
_0-0_0
  6
CONTINUOUS
 62
    7
 10
2685.5302311570349
 20
1608.6263808356191
 11
2685.5168091990718
 21
1608.601243100745
  0
LINE
  8
_0-0_0
  6
CONTINUOUS
 62
    7
 10
2685.5168091990718
 20
1608.601243100745
 11
2685.5049662949868
 21
1608.5756798914999
  0
LINE
  8
_0-0_0
  6
CONTINUOUS
 62
    7
 10
2685.5049662949868
 20
1608.5756798914999
 11
2685.4947024447802
 21
1608.5497380100669
  0
LINE
  8
_0-0_0
  6
CONTINUOUS
 62
    7
 10
2685.4947024447802
 20
1608.5497380100669
 11
2685.4860176484508
 21
1608.5234642586249
  0
LINE
  8
_0-0_0
  6
CONTINUOUS
 62
    7
 10
2685.4860176484508
 20
1608.5234642586249
 11
2685.4789119060015
 21
1608.4969054393559
  0
LINE
  8
_0-0_0
  6
CONTINUOUS
 62
    7
 10
2685.4789119060015
 20
1608.4969054393559
 11
2685.4733852174277
 21
1608.470108354441
  0
LINE
  8
_0-0_0
  6
CONTINUOUS
 62
    7
 10
2685.4733852174277
 20
1608.470108354441
 11
2685.469437582733
 21
1608.4431198060579
  0
LINE
  8
_0-0_0
  6
CONTINUOUS
 62
    7
 10
2685.469437582733
 20
1608.4431198060579
 11
2685.4670690019152
 21
1608.41598659639
  0
LINE
  8
_0-0_0
  6
CONTINUOUS
 62
    7
 10
2685.4670690019152
 20
1608.41598659639
 11
2685.466279474977
 21
1608.3887555276169
  0
LINE
  8
_0-0_0
  6
CONTINUOUS
 62
    7
 10
2685.466279474977
 20
1608.3887555276169
 11
2685.4670690019152
 21
1608.3614734019197
  0
LINE
  8
_0-0_0
  6
CONTINUOUS
 62
    7
 10
2685.4670690019152
 20
1608.3614734019197
 11
2685.469437582733
 21
1608.334187021479
  0
LINE
  8
_0-0_0
  6
CONTINUOUS
 62
    7
 10
2685.469437582733
 20
1608.334187021479
 11
2685.4733852174281
 21
1608.3069431884751
  0
LINE
  8
_0-0_0
  6
CONTINUOUS
 62
    7
 10
2685.4733852174281
 20
1608.3069431884751
 11
2685.4789119060001
 21
1608.279788705089
  0
LINE
  8
_0-0_0
  6
CONTINUOUS
 62
    7
 10
2685.4789119060001
 20
1608.279788705089
 11
2685.4860176484508
 21
1608.2527703735011
  0
LINE
  8
_0-0_0
  6
CONTINUOUS
 62
    7
 10
2685.4860176484508
 20
1608.2527703735011
 11
2685.4947024447802
 21
1608.225934995892
  0
LINE
  8
_0-0_0
  6
CONTINUOUS
 62
    7
 10
2685.4947024447802
 20
1608.225934995892
 11
2685.5049662949868
 21
1608.1993293744422
  0
LINE
  8
_0-0_0
  6
CONTINUOUS
 62
    7
 10
2685.5049662949868
 20
1608.1993293744422
 11
2685.5168091990718
 21
1608.1730003113321
  0
LINE
  8
_0-0_0
  6
CONTINUOUS
 62
    7
 10
2685.5168091990718
 20
1608.1730003113321
 11
2685.5302311570349
 21
1608.1469946087441
  0
LINE
  8
_0-0_0
  6
CONTINUOUS
 62
    7
 10
2685.5302311570349
 20
1608.1469946087441
 11
2685.5452321688754
 21
1608.121359068856
  0
LINE
  8
_0-0_0
  6
CONTINUOUS
 62
    7
 10
2685.5452321688754
 20
1608.121359068856
 11
2685.5618122345941
 21
1608.096140493851
  0
LINE
  8
_0-0_0
  6
CONTINUOUS
 62
    7
 10
2685.5618122345941
 20
1608.096140493851
 11
2685.579971354191
 21
1608.0713856859093
  0
LINE
  8
_0-0_0
  6
CONTINUOUS
 62
    7
 10
2685.296352902817
 20
1607.7478890132802
 11
2685.296352902817
 21
1607.5812392122291
  0
LINE
  8
_0-0_0
  6
CONTINUOUS
 62
    7
 10
2684.631316534078
 20
1607.5812392122291
 11
2684.631316534078
 21
1607.8067065901221
  0
LINE
  8
_0-0_0
  6
CONTINUOUS
 62
    7
 10
2685.296352902817
 20
1607.7478890132802
 11
2685.257233116421
 21
1607.8067065901221
  0
LINE
  8
_0-0_0
  6
CONTINUOUS
 62
    7
 10
2685.257233116421
 20
1607.8067065901221
 11
2685.14476373053
 21
1607.865524166964
  0
LINE
  8
_0-0_0
  6
CONTINUOUS
 62
    7
 10
2685.14476373053
 20
1607.865524166964
 11
2685.0860840509358
 21
1607.914538814332
  0
LINE
  8
_0-0_0
  6
CONTINUOUS
 62
    7
 10
2685.0860840509358
 20
1607.914538814332
 11
2684.914934985452
 21
1607.914538814332
  0
LINE
  8
_0-0_0
  6
CONTINUOUS
 62
    7
 10
2684.914934985452
 20
1607.914538814332
 11
2684.807355572862
 21
1607.865524166964
  0
LINE
  8
_0-0_0
  6
CONTINUOUS
 62
    7
 10
2684.807355572862
 20
1607.865524166964
 11
2684.753565866567
 21
1607.865524166964
  0
LINE
  8
_0-0_0
  6
CONTINUOUS
 62
    7
 10
2684.753565866567
 20
1607.865524166964
 11
2684.6362065073772
 21
1607.8067065901221
  0
LINE
  8
_0-0_0
  6
CONTINUOUS
 62
    7
 10
2683.966280165339
 20
1609.9241393564221
 11
2683.966280165339
 21
1609.7476866258969
  0
LINE
  8
_0-0_0
  6
CONTINUOUS
 62
    7
 10
2683.966280165339
 20
1609.7476866258969
 11
2684.685106240373
 21
1609.0320727743231
  0
LINE
  8
_0-0_0
  6
CONTINUOUS
 62
    7
 10
2683.477282835383
 20
1609.4732046006361
 11
2683.6875516872651
 21
1609.414387023794
  0
LINE
  8
_0-0_0
  6
CONTINUOUS
 62
    7
 10
2683.6875516872651
 20
1609.414387023794
 11
2684.3574780293029
 21
1608.6987731722202
  0
LINE
  8
_0-0_0
  6
CONTINUOUS
 62
    7
 10
2686.4699464947089
 20
1607.365574763809
 11
2686.2890174826262
 21
1607.365574763809
  0
LINE
  8
_0-0_0
  6
CONTINUOUS
 62
    7
 10
2686.2890174826262
 20
1607.365574763809
 11
2685.579971354191
 21
1608.0811886153831
  0
LINE
  8
_0-0_0
  6
CONTINUOUS
 62
    7
 10
2686.528626174304
 20
1609.414387023794
 11
2686.2987974292255
 21
1609.414387023794
  0
LINE
  8
_0-0_0
  6
CONTINUOUS
 62
    7
 10
2686.2987974292255
 20
1609.414387023794
 11
2685.579971354191
 21
1608.6987731722202
  0
LINE
  8
_0-0_0
  6
CONTINUOUS
 62
    7
 10
2683.9173804323436
 20
1606.9146400080231
 11
2683.9173804323436
 21
1607.0812898090751
  0
LINE
  8
_0-0_0
  6
CONTINUOUS
 62
    7
 10
2683.9173804323436
 20
1607.0812898090751
 11
2684.6264265607779
 21
1607.8067065901221
  0
LINE
  8
_0-0_0
  6
CONTINUOUS
 62
    7
 10
2686.0200689511498
 20
1609.86532177958
 11
2686.0200689511498
 21
1609.6986719785291
  0
LINE
  8
_0-0_0
  6
CONTINUOUS
 62
    7
 10
2686.0200689511498
 20
1609.6986719785291
 11
2685.3012428761158
 21
1608.9732551974812
  0
LINE
  8
_0-0_0
  6
CONTINUOUS
 62
    7
 10
2683.477282835383
 20
1607.365574763809
 11
2683.6386519542693
 21
1607.365574763809
  0
LINE
  8
_0-0_0
  6
CONTINUOUS
 62
    7
 10
2683.6386519542693
 20
1607.365574763809
 11
2684.3574780293029
 21
1608.0811886153831
  0
LINE
  8
_0-0_0
  6
CONTINUOUS
 62
    7
 10
2686.0200689511498
 20
1606.865625360655
 11
2686.0200689511498
 21
1607.032275161707
  0
LINE
  8
_0-0_0
  6
CONTINUOUS
 62
    7
 10
2686.0200689511498
 20
1607.032275161707
 11
2685.3012428761158
 21
1607.7478890132802
  0
LINE
  8
_0-0_0
  6
CONTINUOUS
 62
    7
 10
2686.0200689511498
 20
1607.032275161707
 11
2686.2890174826262
 21
1607.365574763809
  0
LINE
  8
_0-0_0
  6
CONTINUOUS
 62
    7
 10
2686.2939074559249
 20
1609.414387023794
 11
2686.0249589244499
 21
1609.6986719785291
  0
LINE
  8
_0-0_0
  6
CONTINUOUS
 62
    7
 10
2683.6337619809692
 20
1607.365574763809
 11
2683.9124904590435
 21
1607.0812898090751
  0
LINE
  8
_0-0_0
  6
CONTINUOUS
 62
    7
 10
2683.966280165339
 20
1609.7476866258969
 11
2683.697331633864
 21
1609.414387023794
  0
LINE
  8
_0-0_0
  6
CONTINUOUS
 62
    7
 10
2686.0200689511498
 20
2381.865625360655
 11
2686.4699464947089
 21
2382.365574763809
  0
LINE
  8
_0-0_0
  6
CONTINUOUS
 62
    7
 10
2686.4699464947089
 20
2382.365574763809
 11
2685.8098000992695
 21
2383.0811886153829
  0
LINE
  8
_0-0_0
  6
CONTINUOUS
 62
    7
 10
2685.8049101259703
 20
2383.6987731722202
 11
2685.6973307133794
 21
2383.365473570118
  0
LINE
  8
_0-0_0
  6
CONTINUOUS
 62
    7
 10
2685.6973307133794
 20
2383.365473570118
 11
2685.8049101259703
 21
2383.0713856859088
  0
LINE
  8
_0-0_0
  6
CONTINUOUS
 62
    7
 10
2685.8049101259703
 20
2383.6987731722202
 11
2686.5237362010039
 21
2384.414387023794
  0
LINE
  8
_0-0_0
  6
CONTINUOUS
 62
    7
 10
2686.5237362010039
 20
2384.414387023794
 11
2686.0151789778511
 21
2384.86532177958
  0
LINE
  8
_0-0_0
  6
CONTINUOUS
 62
    7
 10
2686.0151789778511
 20
2384.86532177958
 11
2685.296352902817
 21
2384.1987225753751
  0
LINE
  8
_0-0_0
  6
CONTINUOUS
 62
    7
 10
2684.6899962136722
 20
2384.2477372227431
 11
2685.0225143980415
 21
2384.0810874216909
  0
LINE
  8
_0-0_0
  6
CONTINUOUS
 62
    7
 10
2685.0225143980415
 20
2384.0810874216909
 11
2685.3012428761158
 21
2384.1987225753751
  0
LINE
  8
_0-0_0
  6
CONTINUOUS
 62
    7
 10
2684.6899962136722
 20
2384.2477372227431
 11
2683.9711701386391
 21
2384.9241393564221
  0
LINE
  8
_0-0_0
  6
CONTINUOUS
 62
    7
 10
2683.9711701386391
 20
2384.9241393564221
 11
2683.477282835383
 21
2384.4732046006361
  0
LINE
  8
_0-0_0
  6
CONTINUOUS
 62
    7
 10
2683.477282835383
 20
2384.4732046006361
 11
2684.1912189371192
 21
2383.7477878195891
  0
LINE
  8
_0-0_0
  6
CONTINUOUS
 62
    7
 10
2684.142319204122
 20
2383.0811886153829
 11
2684.3134682696068
 21
2383.414488217486
  0
LINE
  8
_0-0_0
  6
CONTINUOUS
 62
    7
 10
2684.3134682696068
 20
2383.414488217486
 11
2684.1912189371192
 21
2383.7477878195891
  0
LINE
  8
_0-0_0
  6
CONTINUOUS
 62
    7
 10
2684.142319204122
 20
2383.0811886153829
 11
2683.4821728086831
 21
2382.365574763809
  0
LINE
  8
_0-0_0
  6
CONTINUOUS
 62
    7
 10
2683.4821728086831
 20
2382.365574763809
 11
2683.9222704056428
 21
2381.914640008024
  0
LINE
  8
_0-0_0
  6
CONTINUOUS
 62
    7
 10
2683.9222704056428
 20
2381.914640008024
 11
2684.631316534078
 21
2382.5812392122289
  0
LINE
  8
_0-0_0
  6
CONTINUOUS
 62
    7
 10
2685.296352902817
 20
2382.5812392122289
 11
2684.9638347184459
 21
2382.6988743659122
  0
LINE
  8
_0-0_0
  6
CONTINUOUS
 62
    7
 10
2684.9638347184459
 20
2382.6988743659122
 11
2684.6362065073772
 21
2382.5812392122289
  0
LINE
  8
_0-0_0
  6
CONTINUOUS
 62
    7
 10
2686.0200689511498
 20
2381.865625360655
 11
2685.3012428761158
 21
2382.5812392122289
  0
LINE
  8
_0-0_0
  6
CONTINUOUS
 62
    7
 10
2684.3574780293029
 20
2383.0811886153829
 11
2684.1472091774222
 21
2383.0811886153829
  0
LINE
  8
_0-0_0
  6
CONTINUOUS
 62
    7
 10
2684.1912189371192
 20
2383.7477878195891
 11
2684.3623680026021
 21
2383.6987731722202
  0
LINE
  8
_0-0_0
  6
CONTINUOUS
 62
    7
 10
2684.3574780293029
 20
2383.0811886153829
 11
2684.382861744868
 21
2383.1102002943931
  0
LINE
  8
_0-0_0
  6
CONTINUOUS
 62
    7
 10
2684.382861744868
 20
2383.1102002943931
 11
2684.4064117204462
 21
2383.1384631385108
  0
LINE
  8
_0-0_0
  6
CONTINUOUS
 62
    7
 10
2684.4064117204462
 20
2383.1384631385108
 11
2684.4280770188161
 21
2383.1660452236388
  0
LINE
  8
_0-0_0
  6
CONTINUOUS
 62
    7
 10
2684.4280770188161
 20
2383.1660452236388
 11
2684.447806702753
 21
2383.193014625675
  0
LINE
  8
_0-0_0
  6
CONTINUOUS
 62
    7
 10
2684.447806702753
 20
2383.193014625675
 11
2684.465549835038
 21
2383.219439420518
  0
LINE
  8
_0-0_0
  6
CONTINUOUS
 62
    7
 10
2684.465549835038
 20
2383.219439420518
 11
2684.4812554784485
 21
2383.2453876840659
  0
LINE
  8
_0-0_0
  6
CONTINUOUS
 62
    7
 10
2684.4812554784485
 20
2383.2453876840659
 11
2684.4948726957609
 21
2383.2709274922199
  0
LINE
  8
_0-0_0
  6
CONTINUOUS
 62
    7
 10
2684.4948726957609
 20
2383.2709274922199
 11
2684.5063505497556
 21
2383.296126920879
  0
LINE
  8
_0-0_0
  6
CONTINUOUS
 62
    7
 10
2684.5063505497556
 20
2383.296126920879
 11
2684.5156381032102
 21
2383.3210540459399
  0
LINE
  8
_0-0_0
  6
CONTINUOUS
 62
    7
 10
2684.5156381032102
 20
2383.3210540459399
 11
2684.5226844189028
 21
2383.3457769433048
  0
LINE
  8
_0-0_0
  6
CONTINUOUS
 62
    7
 10
2684.5226844189028
 20
2383.3457769433048
 11
2684.5274385596099
 21
2383.3703636888708
  0
LINE
  8
_0-0_0
  6
CONTINUOUS
 62
    7
 10
2684.5274385596099
 20
2383.3703636888708
 11
2684.529849588112
 21
2383.3948823585379
  0
LINE
  8
_0-0_0
  6
CONTINUOUS
 62
    7
 10
2684.529849588112
 20
2383.3948823585379
 11
2684.5298665671871
 21
2383.4194010282058
  0
LINE
  8
_0-0_0
  6
CONTINUOUS
 62
    7
 10
2684.5298665671871
 20
2383.4194010282058
 11
2684.5274385596099
 21
2383.4439877737718
  0
LINE
  8
_0-0_0
  6
CONTINUOUS
 62
    7
 10
2684.5274385596099
 20
2383.4439877737718
 11
2684.5225146281632
 21
2383.4687106711372
  0
LINE
  8
_0-0_0
  6
CONTINUOUS
 62
    7
 10
2684.5225146281632
 20
2383.4687106711372
 11
2684.5150438356218
 21
2383.493637796199
  0
LINE
  8
_0-0_0
  6
CONTINUOUS
 62
    7
 10
2684.5150438356218
 20
2383.493637796199
 11
2684.5049752447658
 21
2383.5188372248581
  0
LINE
  8
_0-0_0
  6
CONTINUOUS
 62
    7
 10
2684.5049752447658
 20
2383.5188372248581
 11
2684.4922579183722
 21
2383.5443770330112
  0
LINE
  8
_0-0_0
  6
CONTINUOUS
 62
    7
 10
2684.4922579183722
 20
2383.5443770330112
 11
2684.4768409192188
 21
2383.57032529656
  0
LINE
  8
_0-0_0
  6
CONTINUOUS
 62
    7
 10
2684.4768409192188
 20
2383.57032529656
 11
2684.458673310085
 21
2383.596750091403
  0
LINE
  8
_0-0_0
  6
CONTINUOUS
 62
    7
 10
2684.458673310085
 20
2383.596750091403
 11
2684.4377041537491
 21
2383.6237194934379
  0
LINE
  8
_0-0_0
  6
CONTINUOUS
 62
    7
 10
2684.4377041537491
 20
2383.6237194934379
 11
2684.413882512988
 21
2383.6513015785658
  0
LINE
  8
_0-0_0
  6
CONTINUOUS
 62
    7
 10
2684.413882512988
 20
2383.6513015785658
 11
2684.3871574505788
 21
2383.679564422685
  0
LINE
  8
_0-0_0
  6
CONTINUOUS
 62
    7
 10
2684.3871574505788
 20
2383.679564422685
 11
2684.3574780293029
 21
2383.7085761016938
  0
LINE
  8
_0-0_0
  6
CONTINUOUS
 62
    7
 10
2684.6899962136722
 20
2384.0320727743228
 11
2684.6899962136722
 21
2384.2379342932691
  0
LINE
  8
_0-0_0
  6
CONTINUOUS
 62
    7
 10
2685.296352902817
 20
2384.1987225753751
 11
2685.296352902817
 21
2383.9732551974821
  0
LINE
  8
_0-0_0
  6
CONTINUOUS
 62
    7
 10
2684.6899962136722
 20
2384.0320727743228
 11
2684.7117386253349
 21
2384.005108336155
  0
LINE
  8
_0-0_0
  6
CONTINUOUS
 62
    7
 10
2684.7117386253349
 20
2384.005108336155
 11
2684.7341474656509
 21
2383.9805563376631
  0
LINE
  8
_0-0_0
  6
CONTINUOUS
 62
    7
 10
2684.7341474656509
 20
2383.9805563376631
 11
2684.7571760421661
 21
2383.958378486152
  0
LINE
  8
_0-0_0
  6
CONTINUOUS
 62
    7
 10
2684.7571760421661
 20
2383.958378486152
 11
2684.7807776624277
 21
2383.938536488929
  0
LINE
  8
_0-0_0
  6
CONTINUOUS
 62
    7
 10
2684.7807776624277
 20
2383.938536488929
 11
2684.8049056339819
 21
2383.9209920533031
  0
LINE
  8
_0-0_0
  6
CONTINUOUS
 62
    7
 10
2684.8049056339819
 20
2383.9209920533031
 11
2684.8295132643752
 21
2383.9057068865782
  0
LINE
  8
_0-0_0
  6
CONTINUOUS
 62
    7
 10
2684.8295132643752
 20
2383.9057068865782
 11
2684.8545538611543
 21
2383.892642696062
  0
LINE
  8
_0-0_0
  6
CONTINUOUS
 62
    7
 10
2684.8545538611543
 20
2383.892642696062
 11
2684.879980731866
 21
2383.8817611890622
  0
LINE
  8
_0-0_0
  6
CONTINUOUS
 62
    7
 10
2684.879980731866
 20
2383.8817611890622
 11
2684.905747184057
 21
2383.8730240728828
  0
LINE
  8
_0-0_0
  6
CONTINUOUS
 62
    7
 10
2684.905747184057
 20
2383.8730240728828
 11
2684.9318065252728
 21
2383.866393054835
  0
LINE
  8
_0-0_0
  6
CONTINUOUS
 62
    7
 10
2684.9318065252728
 20
2383.866393054835
 11
2684.9581120630619
 21
2383.8618298422221
  0
LINE
  8
_0-0_0
  6
CONTINUOUS
 62
    7
 10
2684.9581120630619
 20
2383.8618298422221
 11
2684.9846171049699
 21
2383.859296142351
  0
LINE
  8
_0-0_0
  6
CONTINUOUS
 62
    7
 10
2684.9846171049699
 20
2383.859296142351
 11
2685.0112749585442
 21
2383.85875366253
  0
LINE
  8
_0-0_0
  6
CONTINUOUS
 62
    7
 10
2685.0112749585442
 20
2383.85875366253
 11
2685.03803893133
 21
2383.8601641100649
  0
LINE
  8
_0-0_0
  6
CONTINUOUS
 62
    7
 10
2685.03803893133
 20
2383.8601641100649
 11
2685.0648623308739
 21
2383.8634891922629
  0
LINE
  8
_0-0_0
  6
CONTINUOUS
 62
    7
 10
2685.0648623308739
 20
2383.8634891922629
 11
2685.0916984647238
 21
2383.8686906164298
  0
LINE
  8
_0-0_0
  6
CONTINUOUS
 62
    7
 10
2685.0916984647238
 20
2383.8686906164298
 11
2685.1185006404262
 21
2383.8757300898742
  0
LINE
  8
_0-0_0
  6
CONTINUOUS
 62
    7
 10
2685.1185006404262
 20
2383.8757300898742
 11
2685.1452221655268
 21
2383.8845693199
  0
LINE
  8
_0-0_0
  6
CONTINUOUS
 62
    7
 10
2685.1452221655268
 20
2383.8845693199
 11
2685.1718163475734
 21
2383.8951700138159
  0
LINE
  8
_0-0_0
  6
CONTINUOUS
 62
    7
 10
2685.1718163475734
 20
2383.8951700138159
 11
2685.1982364941109
 21
2383.907493878929
  0
LINE
  8
_0-0_0
  6
CONTINUOUS
 62
    7
 10
2685.1982364941109
 20
2383.907493878929
 11
2685.224435912688
 21
2383.9215026225461
  0
LINE
  8
_0-0_0
  6
CONTINUOUS
 62
    7
 10
2685.224435912688
 20
2383.9215026225461
 11
2685.2503679108495
 21
2383.937157951972
  0
LINE
  8
_0-0_0
  6
CONTINUOUS
 62
    7
 10
2685.2503679108495
 20
2383.937157951972
 11
2685.2759857961437
 21
2383.954421574515
  0
LINE
  8
_0-0_0
  6
CONTINUOUS
 62
    7
 10
2685.2759857961437
 20
2383.954421574515
 11
2685.3012428761158
 21
2383.9732551974821
  0
LINE
  8
_0-0_0
  6
CONTINUOUS
 62
    7
 10
2685.579971354191
 20
2383.6987731722202
 11
2685.8000201526711
 21
2383.6987731722202
  0
LINE
  8
_0-0_0
  6
CONTINUOUS
 62
    7
 10
2685.8049101259703
 20
2383.0811886153829
 11
2685.5848613274902
 21
2383.0811886153829
  0
LINE
  8
_0-0_0
  6
CONTINUOUS
 62
    7
 10
2685.579971354191
 20
2383.6987731722202
 11
2685.5618122345941
 21
2383.6751926735378
  0
LINE
  8
_0-0_0
  6
CONTINUOUS
 62
    7
 10
2685.5618122345941
 20
2383.6751926735378
 11
2685.5452321688749
 21
2383.6510462939441
  0
LINE
  8
_0-0_0
  6
CONTINUOUS
 62
    7
 10
2685.5452321688749
 20
2383.6510462939441
 11
2685.5302311570349
 21
2383.6263808356189
  0
LINE
  8
_0-0_0
  6
CONTINUOUS
 62
    7
 10
2685.5302311570349
 20
2383.6263808356189
 11
2685.5168091990718
 21
2383.6012431007448
  0
LINE
  8
_0-0_0
  6
CONTINUOUS
 62
    7
 10
2685.5168091990718
 20
2383.6012431007448
 11
2685.5049662949868
 21
2383.5756798914999
  0
LINE
  8
_0-0_0
  6
CONTINUOUS
 62
    7
 10
2685.5049662949868
 20
2383.5756798914999
 11
2685.4947024447802
 21
2383.5497380100669
  0
LINE
  8
_0-0_0
  6
CONTINUOUS
 62
    7
 10
2685.4947024447802
 20
2383.5497380100669
 11
2685.4860176484508
 21
2383.5234642586252
  0
LINE
  8
_0-0_0
  6
CONTINUOUS
 62
    7
 10
2685.4860176484508
 20
2383.5234642586252
 11
2685.4789119060015
 21
2383.4969054393559
  0
LINE
  8
_0-0_0
  6
CONTINUOUS
 62
    7
 10
2685.4789119060015
 20
2383.4969054393559
 11
2685.4733852174277
 21
2383.4701083544401
  0
LINE
  8
_0-0_0
  6
CONTINUOUS
 62
    7
 10
2685.4733852174277
 20
2383.4701083544401
 11
2685.469437582733
 21
2383.4431198060579
  0
LINE
  8
_0-0_0
  6
CONTINUOUS
 62
    7
 10
2685.469437582733
 20
2383.4431198060579
 11
2685.4670690019152
 21
2383.4159865963902
  0
LINE
  8
_0-0_0
  6
CONTINUOUS
 62
    7
 10
2685.4670690019152
 20
2383.4159865963902
 11
2685.466279474977
 21
2383.3887555276169
  0
LINE
  8
_0-0_0
  6
CONTINUOUS
 62
    7
 10
2685.466279474977
 20
2383.3887555276169
 11
2685.4670690019152
 21
2383.3614734019202
  0
LINE
  8
_0-0_0
  6
CONTINUOUS
 62
    7
 10
2685.4670690019152
 20
2383.3614734019202
 11
2685.469437582733
 21
2383.334187021479
  0
LINE
  8
_0-0_0
  6
CONTINUOUS
 62
    7
 10
2685.469437582733
 20
2383.334187021479
 11
2685.4733852174281
 21
2383.306943188476
  0
LINE
  8
_0-0_0
  6
CONTINUOUS
 62
    7
 10
2685.4733852174281
 20
2383.306943188476
 11
2685.4789119060001
 21
2383.2797887050888
  0
LINE
  8
_0-0_0
  6
CONTINUOUS
 62
    7
 10
2685.4789119060001
 20
2383.2797887050888
 11
2685.4860176484508
 21
2383.2527703735009
  0
LINE
  8
_0-0_0
  6
CONTINUOUS
 62
    7
 10
2685.4860176484508
 20
2383.2527703735009
 11
2685.4947024447802
 21
2383.2259349958922
  0
LINE
  8
_0-0_0
  6
CONTINUOUS
 62
    7
 10
2685.4947024447802
 20
2383.2259349958922
 11
2685.5049662949868
 21
2383.1993293744422
  0
LINE
  8
_0-0_0
  6
CONTINUOUS
 62
    7
 10
2685.5049662949868
 20
2383.1993293744422
 11
2685.5168091990718
 21
2383.173000311333
  0
LINE
  8
_0-0_0
  6
CONTINUOUS
 62
    7
 10
2685.5168091990718
 20
2383.173000311333
 11
2685.5302311570349
 21
2383.1469946087441
  0
LINE
  8
_0-0_0
  6
CONTINUOUS
 62
    7
 10
2685.5302311570349
 20
2383.1469946087441
 11
2685.5452321688754
 21
2383.1213590688571
  0
LINE
  8
_0-0_0
  6
CONTINUOUS
 62
    7
 10
2685.5452321688754
 20
2383.1213590688571
 11
2685.5618122345941
 21
2383.0961404938521
  0
LINE
  8
_0-0_0
  6
CONTINUOUS
 62
    7
 10
2685.5618122345941
 20
2383.0961404938521
 11
2685.579971354191
 21
2383.0713856859088
  0
LINE
  8
_0-0_0
  6
CONTINUOUS
 62
    7
 10
2685.296352902817
 20
2382.7478890132802
 11
2685.296352902817
 21
2382.5812392122289
  0
LINE
  8
_0-0_0
  6
CONTINUOUS
 62
    7
 10
2684.631316534078
 20
2382.5812392122289
 11
2684.631316534078
 21
2382.8067065901218
  0
LINE
  8
_0-0_0
  6
CONTINUOUS
 62
    7
 10
2685.296352902817
 20
2382.7478890132802
 11
2685.257233116421
 21
2382.8067065901218
  0
LINE
  8
_0-0_0
  6
CONTINUOUS
 62
    7
 10
2685.257233116421
 20
2382.8067065901218
 11
2685.14476373053
 21
2382.865524166964
  0
LINE
  8
_0-0_0
  6
CONTINUOUS
 62
    7
 10
2685.14476373053
 20
2382.865524166964
 11
2685.0860840509358
 21
2382.914538814332
  0
LINE
  8
_0-0_0
  6
CONTINUOUS
 62
    7
 10
2685.0860840509358
 20
2382.914538814332
 11
2684.914934985452
 21
2382.914538814332
  0
LINE
  8
_0-0_0
  6
CONTINUOUS
 62
    7
 10
2684.914934985452
 20
2382.914538814332
 11
2684.807355572862
 21
2382.865524166964
  0
LINE
  8
_0-0_0
  6
CONTINUOUS
 62
    7
 10
2684.807355572862
 20
2382.865524166964
 11
2684.753565866567
 21
2382.865524166964
  0
LINE
  8
_0-0_0
  6
CONTINUOUS
 62
    7
 10
2684.753565866567
 20
2382.865524166964
 11
2684.6362065073772
 21
2382.8067065901218
  0
LINE
  8
_0-0_0
  6
CONTINUOUS
 62
    7
 10
2683.966280165339
 20
2384.9241393564221
 11
2683.966280165339
 21
2384.7476866258971
  0
LINE
  8
_0-0_0
  6
CONTINUOUS
 62
    7
 10
2683.966280165339
 20
2384.7476866258971
 11
2684.685106240373
 21
2384.0320727743228
  0
LINE
  8
_0-0_0
  6
CONTINUOUS
 62
    7
 10
2683.477282835383
 20
2384.4732046006361
 11
2683.6875516872651
 21
2384.414387023794
  0
LINE
  8
_0-0_0
  6
CONTINUOUS
 62
    7
 10
2683.6875516872651
 20
2384.414387023794
 11
2684.3574780293029
 21
2383.6987731722202
  0
LINE
  8
_0-0_0
  6
CONTINUOUS
 62
    7
 10
2686.4699464947089
 20
2382.365574763809
 11
2686.2890174826262
 21
2382.365574763809
  0
LINE
  8
_0-0_0
  6
CONTINUOUS
 62
    7
 10
2686.2890174826262
 20
2382.365574763809
 11
2685.579971354191
 21
2383.0811886153829
  0
LINE
  8
_0-0_0
  6
CONTINUOUS
 62
    7
 10
2686.528626174304
 20
2384.414387023794
 11
2686.2987974292255
 21
2384.414387023794
  0
LINE
  8
_0-0_0
  6
CONTINUOUS
 62
    7
 10
2686.2987974292255
 20
2384.414387023794
 11
2685.579971354191
 21
2383.6987731722202
  0
LINE
  8
_0-0_0
  6
CONTINUOUS
 62
    7
 10
2683.9173804323436
 20
2381.914640008024
 11
2683.9173804323436
 21
2382.0812898090749
  0
LINE
  8
_0-0_0
  6
CONTINUOUS
 62
    7
 10
2683.9173804323436
 20
2382.0812898090749
 11
2684.6264265607779
 21
2382.8067065901218
  0
LINE
  8
_0-0_0
  6
CONTINUOUS
 62
    7
 10
2686.0200689511498
 20
2384.86532177958
 11
2686.0200689511498
 21
2384.6986719785291
  0
LINE
  8
_0-0_0
  6
CONTINUOUS
 62
    7
 10
2686.0200689511498
 20
2384.6986719785291
 11
2685.3012428761158
 21
2383.9732551974821
  0
LINE
  8
_0-0_0
  6
CONTINUOUS
 62
    7
 10
2683.477282835383
 20
2382.365574763809
 11
2683.6386519542693
 21
2382.365574763809
  0
LINE
  8
_0-0_0
  6
CONTINUOUS
 62
    7
 10
2683.6386519542693
 20
2382.365574763809
 11
2684.3574780293029
 21
2383.0811886153829
  0
LINE
  8
_0-0_0
  6
CONTINUOUS
 62
    7
 10
2686.0200689511498
 20
2381.865625360655
 11
2686.0200689511498
 21
2382.0322751617068
  0
LINE
  8
_0-0_0
  6
CONTINUOUS
 62
    7
 10
2686.0200689511498
 20
2382.0322751617068
 11
2685.3012428761158
 21
2382.7478890132802
  0
LINE
  8
_0-0_0
  6
CONTINUOUS
 62
    7
 10
2686.0200689511498
 20
2382.0322751617068
 11
2686.2890174826262
 21
2382.365574763809
  0
LINE
  8
_0-0_0
  6
CONTINUOUS
 62
    7
 10
2686.2939074559249
 20
2384.414387023794
 11
2686.0249589244499
 21
2384.6986719785291
  0
LINE
  8
_0-0_0
  6
CONTINUOUS
 62
    7
 10
2683.6337619809692
 20
2382.365574763809
 11
2683.9124904590435
 21
2382.0812898090749
  0
LINE
  8
_0-0_0
  6
CONTINUOUS
 62
    7
 10
2683.966280165339
 20
2384.7476866258971
 11
2683.697331633864
 21
2384.414387023794
  0
LINE
  8
_0-0_0
  6
CONTINUOUS
 62
    7
 10
2655.0200689511494
 20
2381.865625360655
 11
2655.4699464947089
 21
2382.365574763809
  0
LINE
  8
_0-0_0
  6
CONTINUOUS
 62
    7
 10
2655.4699464947089
 20
2382.365574763809
 11
2654.80980009927
 21
2383.0811886153829
  0
LINE
  8
_0-0_0
  6
CONTINUOUS
 62
    7
 10
2654.8049101259699
 20
2383.6987731722202
 11
2654.6973307133799
 21
2383.365473570118
  0
LINE
  8
_0-0_0
  6
CONTINUOUS
 62
    7
 10
2654.6973307133799
 20
2383.365473570118
 11
2654.8049101259699
 21
2383.0713856859088
  0
LINE
  8
_0-0_0
  6
CONTINUOUS
 62
    7
 10
2654.8049101259699
 20
2383.6987731722202
 11
2655.5237362010039
 21
2384.414387023794
  0
LINE
  8
_0-0_0
  6
CONTINUOUS
 62
    7
 10
2655.5237362010039
 20
2384.414387023794
 11
2655.0151789778511
 21
2384.86532177958
  0
LINE
  8
_0-0_0
  6
CONTINUOUS
 62
    7
 10
2655.0151789778511
 20
2384.86532177958
 11
2654.2963529028166
 21
2384.1987225753751
  0
LINE
  8
_0-0_0
  6
CONTINUOUS
 62
    7
 10
2653.6899962136722
 20
2384.2477372227431
 11
2654.022514398041
 21
2384.0810874216909
  0
LINE
  8
_0-0_0
  6
CONTINUOUS
 62
    7
 10
2654.022514398041
 20
2384.0810874216909
 11
2654.3012428761158
 21
2384.1987225753751
  0
LINE
  8
_0-0_0
  6
CONTINUOUS
 62
    7
 10
2653.6899962136722
 20
2384.2477372227431
 11
2652.9711701386391
 21
2384.9241393564221
  0
LINE
  8
_0-0_0
  6
CONTINUOUS
 62
    7
 10
2652.9711701386391
 20
2384.9241393564221
 11
2652.4772828353834
 21
2384.4732046006361
  0
LINE
  8
_0-0_0
  6
CONTINUOUS
 62
    7
 10
2652.4772828353834
 20
2384.4732046006361
 11
2653.1912189371187
 21
2383.7477878195891
  0
LINE
  8
_0-0_0
  6
CONTINUOUS
 62
    7
 10
2653.142319204122
 20
2383.0811886153829
 11
2653.3134682696068
 21
2383.414488217486
  0
LINE
  8
_0-0_0
  6
CONTINUOUS
 62
    7
 10
2653.3134682696068
 20
2383.414488217486
 11
2653.1912189371187
 21
2383.7477878195891
  0
LINE
  8
_0-0_0
  6
CONTINUOUS
 62
    7
 10
2653.142319204122
 20
2383.0811886153829
 11
2652.4821728086827
 21
2382.365574763809
  0
LINE
  8
_0-0_0
  6
CONTINUOUS
 62
    7
 10
2652.4821728086827
 20
2382.365574763809
 11
2652.9222704056428
 21
2381.914640008024
  0
LINE
  8
_0-0_0
  6
CONTINUOUS
 62
    7
 10
2652.9222704056428
 20
2381.914640008024
 11
2653.631316534078
 21
2382.5812392122289
  0
LINE
  8
_0-0_0
  6
CONTINUOUS
 62
    7
 10
2654.2963529028166
 20
2382.5812392122289
 11
2653.9638347184464
 21
2382.6988743659122
  0
LINE
  8
_0-0_0
  6
CONTINUOUS
 62
    7
 10
2653.9638347184464
 20
2382.6988743659122
 11
2653.6362065073772
 21
2382.5812392122289
  0
LINE
  8
_0-0_0
  6
CONTINUOUS
 62
    7
 10
2655.0200689511494
 20
2381.865625360655
 11
2654.3012428761158
 21
2382.5812392122289
  0
LINE
  8
_0-0_0
  6
CONTINUOUS
 62
    7
 10
2653.3574780293029
 20
2383.0811886153829
 11
2653.1472091774222
 21
2383.0811886153829
  0
LINE
  8
_0-0_0
  6
CONTINUOUS
 62
    7
 10
2653.1912189371187
 20
2383.7477878195891
 11
2653.3623680026021
 21
2383.6987731722202
  0
LINE
  8
_0-0_0
  6
CONTINUOUS
 62
    7
 10
2653.3574780293029
 20
2383.0811886153829
 11
2653.382861744868
 21
2383.1102002943931
  0
LINE
  8
_0-0_0
  6
CONTINUOUS
 62
    7
 10
2653.382861744868
 20
2383.1102002943931
 11
2653.4064117204462
 21
2383.1384631385108
  0
LINE
  8
_0-0_0
  6
CONTINUOUS
 62
    7
 10
2653.4064117204462
 20
2383.1384631385108
 11
2653.4280770188161
 21
2383.1660452236388
  0
LINE
  8
_0-0_0
  6
CONTINUOUS
 62
    7
 10
2653.4280770188161
 20
2383.1660452236388
 11
2653.447806702753
 21
2383.193014625675
  0
LINE
  8
_0-0_0
  6
CONTINUOUS
 62
    7
 10
2653.447806702753
 20
2383.193014625675
 11
2653.4655498350376
 21
2383.219439420518
  0
LINE
  8
_0-0_0
  6
CONTINUOUS
 62
    7
 10
2653.4655498350376
 20
2383.219439420518
 11
2653.481255478448
 21
2383.2453876840659
  0
LINE
  8
_0-0_0
  6
CONTINUOUS
 62
    7
 10
2653.481255478448
 20
2383.2453876840659
 11
2653.4948726957609
 21
2383.2709274922199
  0
LINE
  8
_0-0_0
  6
CONTINUOUS
 62
    7
 10
2653.4948726957609
 20
2383.2709274922199
 11
2653.506350549756
 21
2383.296126920879
  0
LINE
  8
_0-0_0
  6
CONTINUOUS
 62
    7
 10
2653.506350549756
 20
2383.296126920879
 11
2653.5156381032102
 21
2383.3210540459399
  0
LINE
  8
_0-0_0
  6
CONTINUOUS
 62
    7
 10
2653.5156381032102
 20
2383.3210540459399
 11
2653.5226844189019
 21
2383.3457769433048
  0
LINE
  8
_0-0_0
  6
CONTINUOUS
 62
    7
 10
2653.5226844189019
 20
2383.3457769433048
 11
2653.5274385596094
 21
2383.3703636888708
  0
LINE
  8
_0-0_0
  6
CONTINUOUS
 62
    7
 10
2653.5274385596094
 20
2383.3703636888708
 11
2653.529849588112
 21
2383.3948823585379
  0
LINE
  8
_0-0_0
  6
CONTINUOUS
 62
    7
 10
2653.529849588112
 20
2383.3948823585379
 11
2653.5298665671862
 21
2383.4194010282058
  0
LINE
  8
_0-0_0
  6
CONTINUOUS
 62
    7
 10
2653.5298665671862
 20
2383.4194010282058
 11
2653.5274385596108
 21
2383.4439877737718
  0
LINE
  8
_0-0_0
  6
CONTINUOUS
 62
    7
 10
2653.5274385596108
 20
2383.4439877737718
 11
2653.5225146281628
 21
2383.4687106711372
  0
LINE
  8
_0-0_0
  6
CONTINUOUS
 62
    7
 10
2653.5225146281628
 20
2383.4687106711372
 11
2653.5150438356222
 21
2383.493637796199
  0
LINE
  8
_0-0_0
  6
CONTINUOUS
 62
    7
 10
2653.5150438356222
 20
2383.493637796199
 11
2653.5049752447658
 21
2383.5188372248581
  0
LINE
  8
_0-0_0
  6
CONTINUOUS
 62
    7
 10
2653.5049752447658
 20
2383.5188372248581
 11
2653.4922579183722
 21
2383.5443770330112
  0
LINE
  8
_0-0_0
  6
CONTINUOUS
 62
    7
 10
2653.4922579183722
 20
2383.5443770330112
 11
2653.4768409192193
 21
2383.57032529656
  0
LINE
  8
_0-0_0
  6
CONTINUOUS
 62
    7
 10
2653.4768409192193
 20
2383.57032529656
 11
2653.458673310085
 21
2383.596750091403
  0
LINE
  8
_0-0_0
  6
CONTINUOUS
 62
    7
 10
2653.458673310085
 20
2383.596750091403
 11
2653.4377041537491
 21
2383.6237194934379
  0
LINE
  8
_0-0_0
  6
CONTINUOUS
 62
    7
 10
2653.4377041537491
 20
2383.6237194934379
 11
2653.4138825129876
 21
2383.6513015785658
  0
LINE
  8
_0-0_0
  6
CONTINUOUS
 62
    7
 10
2653.4138825129876
 20
2383.6513015785658
 11
2653.3871574505788
 21
2383.679564422685
  0
LINE
  8
_0-0_0
  6
CONTINUOUS
 62
    7
 10
2653.3871574505788
 20
2383.679564422685
 11
2653.3574780293029
 21
2383.7085761016938
  0
LINE
  8
_0-0_0
  6
CONTINUOUS
 62
    7
 10
2653.6899962136722
 20
2384.0320727743228
 11
2653.6899962136722
 21
2384.2379342932691
  0
LINE
  8
_0-0_0
  6
CONTINUOUS
 62
    7
 10
2654.2963529028166
 20
2384.1987225753751
 11
2654.2963529028166
 21
2383.9732551974821
  0
LINE
  8
_0-0_0
  6
CONTINUOUS
 62
    7
 10
2653.6899962136722
 20
2384.0320727743228
 11
2653.7117386253349
 21
2384.005108336155
  0
LINE
  8
_0-0_0
  6
CONTINUOUS
 62
    7
 10
2653.7117386253349
 20
2384.005108336155
 11
2653.7341474656514
 21
2383.9805563376631
  0
LINE
  8
_0-0_0
  6
CONTINUOUS
 62
    7
 10
2653.7341474656514
 20
2383.9805563376631
 11
2653.7571760421661
 21
2383.958378486152
  0
LINE
  8
_0-0_0
  6
CONTINUOUS
 62
    7
 10
2653.7571760421661
 20
2383.958378486152
 11
2653.7807776624281
 21
2383.938536488929
  0
LINE
  8
_0-0_0
  6
CONTINUOUS
 62
    7
 10
2653.7807776624281
 20
2383.938536488929
 11
2653.804905633981
 21
2383.9209920533031
  0
LINE
  8
_0-0_0
  6
CONTINUOUS
 62
    7
 10
2653.804905633981
 20
2383.9209920533031
 11
2653.8295132643748
 21
2383.9057068865782
  0
LINE
  8
_0-0_0
  6
CONTINUOUS
 62
    7
 10
2653.8295132643748
 20
2383.9057068865782
 11
2653.8545538611538
 21
2383.892642696062
  0
LINE
  8
_0-0_0
  6
CONTINUOUS
 62
    7
 10
2653.8545538611538
 20
2383.892642696062
 11
2653.8799807318665
 21
2383.8817611890622
  0
LINE
  8
_0-0_0
  6
CONTINUOUS
 62
    7
 10
2653.8799807318665
 20
2383.8817611890622
 11
2653.905747184057
 21
2383.8730240728828
  0
LINE
  8
_0-0_0
  6
CONTINUOUS
 62
    7
 10
2653.905747184057
 20
2383.8730240728828
 11
2653.9318065252728
 21
2383.866393054835
  0
LINE
  8
_0-0_0
  6
CONTINUOUS
 62
    7
 10
2653.9318065252728
 20
2383.866393054835
 11
2653.9581120630619
 21
2383.8618298422221
  0
LINE
  8
_0-0_0
  6
CONTINUOUS
 62
    7
 10
2653.9581120630619
 20
2383.8618298422221
 11
2653.9846171049699
 21
2383.859296142351
  0
LINE
  8
_0-0_0
  6
CONTINUOUS
 62
    7
 10
2653.9846171049699
 20
2383.859296142351
 11
2654.0112749585428
 21
2383.85875366253
  0
LINE
  8
_0-0_0
  6
CONTINUOUS
 62
    7
 10
2654.0112749585428
 20
2383.85875366253
 11
2654.03803893133
 21
2383.8601641100649
  0
LINE
  8
_0-0_0
  6
CONTINUOUS
 62
    7
 10
2654.03803893133
 20
2383.8601641100649
 11
2654.0648623308739
 21
2383.8634891922629
  0
LINE
  8
_0-0_0
  6
CONTINUOUS
 62
    7
 10
2654.0648623308739
 20
2383.8634891922629
 11
2654.0916984647238
 21
2383.8686906164298
  0
LINE
  8
_0-0_0
  6
CONTINUOUS
 62
    7
 10
2654.0916984647238
 20
2383.8686906164298
 11
2654.1185006404271
 21
2383.8757300898742
  0
LINE
  8
_0-0_0
  6
CONTINUOUS
 62
    7
 10
2654.1185006404271
 20
2383.8757300898742
 11
2654.1452221655263
 21
2383.8845693199
  0
LINE
  8
_0-0_0
  6
CONTINUOUS
 62
    7
 10
2654.1452221655263
 20
2383.8845693199
 11
2654.171816347573
 21
2383.8951700138159
  0
LINE
  8
_0-0_0
  6
CONTINUOUS
 62
    7
 10
2654.171816347573
 20
2383.8951700138159
 11
2654.1982364941114
 21
2383.907493878929
  0
LINE
  8
_0-0_0
  6
CONTINUOUS
 62
    7
 10
2654.1982364941114
 20
2383.907493878929
 11
2654.224435912688
 21
2383.9215026225461
  0
LINE
  8
_0-0_0
  6
CONTINUOUS
 62
    7
 10
2654.224435912688
 20
2383.9215026225461
 11
2654.2503679108499
 21
2383.937157951972
  0
LINE
  8
_0-0_0
  6
CONTINUOUS
 62
    7
 10
2654.2503679108499
 20
2383.937157951972
 11
2654.2759857961441
 21
2383.954421574515
  0
LINE
  8
_0-0_0
  6
CONTINUOUS
 62
    7
 10
2654.2759857961441
 20
2383.954421574515
 11
2654.3012428761158
 21
2383.9732551974821
  0
LINE
  8
_0-0_0
  6
CONTINUOUS
 62
    7
 10
2654.579971354191
 20
2383.6987731722202
 11
2654.8000201526711
 21
2383.6987731722202
  0
LINE
  8
_0-0_0
  6
CONTINUOUS
 62
    7
 10
2654.8049101259699
 20
2383.0811886153829
 11
2654.5848613274902
 21
2383.0811886153829
  0
LINE
  8
_0-0_0
  6
CONTINUOUS
 62
    7
 10
2654.579971354191
 20
2383.6987731722202
 11
2654.561812234595
 21
2383.6751926735378
  0
LINE
  8
_0-0_0
  6
CONTINUOUS
 62
    7
 10
2654.561812234595
 20
2383.6751926735378
 11
2654.5452321688758
 21
2383.6510462939441
  0
LINE
  8
_0-0_0
  6
CONTINUOUS
 62
    7
 10
2654.5452321688758
 20
2383.6510462939441
 11
2654.5302311570349
 21
2383.6263808356189
  0
LINE
  8
_0-0_0
  6
CONTINUOUS
 62
    7
 10
2654.5302311570349
 20
2383.6263808356189
 11
2654.5168091990722
 21
2383.6012431007448
  0
LINE
  8
_0-0_0
  6
CONTINUOUS
 62
    7
 10
2654.5168091990722
 20
2383.6012431007448
 11
2654.5049662949868
 21
2383.5756798914999
  0
LINE
  8
_0-0_0
  6
CONTINUOUS
 62
    7
 10
2654.5049662949868
 20
2383.5756798914999
 11
2654.4947024447802
 21
2383.5497380100669
  0
LINE
  8
_0-0_0
  6
CONTINUOUS
 62
    7
 10
2654.4947024447802
 20
2383.5497380100669
 11
2654.4860176484508
 21
2383.5234642586252
  0
LINE
  8
_0-0_0
  6
CONTINUOUS
 62
    7
 10
2654.4860176484508
 20
2383.5234642586252
 11
2654.4789119059997
 21
2383.4969054393559
  0
LINE
  8
_0-0_0
  6
CONTINUOUS
 62
    7
 10
2654.4789119059997
 20
2383.4969054393559
 11
2654.4733852174272
 21
2383.4701083544401
  0
LINE
  8
_0-0_0
  6
CONTINUOUS
 62
    7
 10
2654.4733852174272
 20
2383.4701083544401
 11
2654.469437582733
 21
2383.4431198060579
  0
LINE
  8
_0-0_0
  6
CONTINUOUS
 62
    7
 10
2654.469437582733
 20
2383.4431198060579
 11
2654.4670690019161
 21
2383.4159865963902
  0
LINE
  8
_0-0_0
  6
CONTINUOUS
 62
    7
 10
2654.4670690019161
 20
2383.4159865963902
 11
2654.466279474977
 21
2383.3887555276169
  0
LINE
  8
_0-0_0
  6
CONTINUOUS
 62
    7
 10
2654.466279474977
 20
2383.3887555276169
 11
2654.4670690019161
 21
2383.3614734019202
  0
LINE
  8
_0-0_0
  6
CONTINUOUS
 62
    7
 10
2654.4670690019161
 20
2383.3614734019202
 11
2654.4694375827321
 21
2383.334187021479
  0
LINE
  8
_0-0_0
  6
CONTINUOUS
 62
    7
 10
2654.4694375827321
 20
2383.334187021479
 11
2654.4733852174286
 21
2383.306943188476
  0
LINE
  8
_0-0_0
  6
CONTINUOUS
 62
    7
 10
2654.4733852174286
 20
2383.306943188476
 11
2654.4789119059997
 21
2383.2797887050888
  0
LINE
  8
_0-0_0
  6
CONTINUOUS
 62
    7
 10
2654.4789119059997
 20
2383.2797887050888
 11
2654.4860176484517
 21
2383.2527703735009
  0
LINE
  8
_0-0_0
  6
CONTINUOUS
 62
    7
 10
2654.4860176484517
 20
2383.2527703735009
 11
2654.4947024447802
 21
2383.2259349958922
  0
LINE
  8
_0-0_0
  6
CONTINUOUS
 62
    7
 10
2654.4947024447802
 20
2383.2259349958922
 11
2654.5049662949868
 21
2383.1993293744422
  0
LINE
  8
_0-0_0
  6
CONTINUOUS
 62
    7
 10
2654.5049662949868
 20
2383.1993293744422
 11
2654.5168091990722
 21
2383.173000311333
  0
LINE
  8
_0-0_0
  6
CONTINUOUS
 62
    7
 10
2654.5168091990722
 20
2383.173000311333
 11
2654.5302311570349
 21
2383.1469946087441
  0
LINE
  8
_0-0_0
  6
CONTINUOUS
 62
    7
 10
2654.5302311570349
 20
2383.1469946087441
 11
2654.5452321688749
 21
2383.1213590688571
  0
LINE
  8
_0-0_0
  6
CONTINUOUS
 62
    7
 10
2654.5452321688749
 20
2383.1213590688571
 11
2654.5618122345941
 21
2383.0961404938521
  0
LINE
  8
_0-0_0
  6
CONTINUOUS
 62
    7
 10
2654.5618122345941
 20
2383.0961404938521
 11
2654.579971354191
 21
2383.0713856859088
  0
LINE
  8
_0-0_0
  6
CONTINUOUS
 62
    7
 10
2654.2963529028166
 20
2382.7478890132802
 11
2654.2963529028166
 21
2382.5812392122289
  0
LINE
  8
_0-0_0
  6
CONTINUOUS
 62
    7
 10
2653.631316534078
 20
2382.5812392122289
 11
2653.631316534078
 21
2382.8067065901218
  0
LINE
  8
_0-0_0
  6
CONTINUOUS
 62
    7
 10
2654.2963529028166
 20
2382.7478890132802
 11
2654.257233116421
 21
2382.8067065901218
  0
LINE
  8
_0-0_0
  6
CONTINUOUS
 62
    7
 10
2654.257233116421
 20
2382.8067065901218
 11
2654.14476373053
 21
2382.865524166964
  0
LINE
  8
_0-0_0
  6
CONTINUOUS
 62
    7
 10
2654.14476373053
 20
2382.865524166964
 11
2654.0860840509358
 21
2382.914538814332
  0
LINE
  8
_0-0_0
  6
CONTINUOUS
 62
    7
 10
2654.0860840509358
 20
2382.914538814332
 11
2653.9149349854515
 21
2382.914538814332
  0
LINE
  8
_0-0_0
  6
CONTINUOUS
 62
    7
 10
2653.9149349854515
 20
2382.914538814332
 11
2653.807355572862
 21
2382.865524166964
  0
LINE
  8
_0-0_0
  6
CONTINUOUS
 62
    7
 10
2653.807355572862
 20
2382.865524166964
 11
2653.7535658665674
 21
2382.865524166964
  0
LINE
  8
_0-0_0
  6
CONTINUOUS
 62
    7
 10
2653.7535658665674
 20
2382.865524166964
 11
2653.6362065073772
 21
2382.8067065901218
  0
LINE
  8
_0-0_0
  6
CONTINUOUS
 62
    7
 10
2652.9662801653385
 20
2384.9241393564221
 11
2652.9662801653385
 21
2384.7476866258971
  0
LINE
  8
_0-0_0
  6
CONTINUOUS
 62
    7
 10
2652.9662801653385
 20
2384.7476866258971
 11
2653.685106240373
 21
2384.0320727743228
  0
LINE
  8
_0-0_0
  6
CONTINUOUS
 62
    7
 10
2652.4772828353834
 20
2384.4732046006361
 11
2652.6875516872651
 21
2384.414387023794
  0
LINE
  8
_0-0_0
  6
CONTINUOUS
 62
    7
 10
2652.6875516872651
 20
2384.414387023794
 11
2653.3574780293029
 21
2383.6987731722202
  0
LINE
  8
_0-0_0
  6
CONTINUOUS
 62
    7
 10
2655.4699464947089
 20
2382.365574763809
 11
2655.2890174826262
 21
2382.365574763809
  0
LINE
  8
_0-0_0
  6
CONTINUOUS
 62
    7
 10
2655.2890174826262
 20
2382.365574763809
 11
2654.579971354191
 21
2383.0811886153829
  0
LINE
  8
_0-0_0
  6
CONTINUOUS
 62
    7
 10
2655.528626174304
 20
2384.414387023794
 11
2655.298797429225
 21
2384.414387023794
  0
LINE
  8
_0-0_0
  6
CONTINUOUS
 62
    7
 10
2655.298797429225
 20
2384.414387023794
 11
2654.579971354191
 21
2383.6987731722202
  0
LINE
  8
_0-0_0
  6
CONTINUOUS
 62
    7
 10
2652.9173804323432
 20
2381.914640008024
 11
2652.9173804323432
 21
2382.0812898090749
  0
LINE
  8
_0-0_0
  6
CONTINUOUS
 62
    7
 10
2652.9173804323432
 20
2382.0812898090749
 11
2653.6264265607779
 21
2382.8067065901218
  0
LINE
  8
_0-0_0
  6
CONTINUOUS
 62
    7
 10
2655.0200689511494
 20
2384.86532177958
 11
2655.0200689511494
 21
2384.6986719785291
  0
LINE
  8
_0-0_0
  6
CONTINUOUS
 62
    7
 10
2655.0200689511494
 20
2384.6986719785291
 11
2654.3012428761158
 21
2383.9732551974821
  0
LINE
  8
_0-0_0
  6
CONTINUOUS
 62
    7
 10
2652.4772828353834
 20
2382.365574763809
 11
2652.6386519542689
 21
2382.365574763809
  0
LINE
  8
_0-0_0
  6
CONTINUOUS
 62
    7
 10
2652.6386519542689
 20
2382.365574763809
 11
2653.3574780293029
 21
2383.0811886153829
  0
LINE
  8
_0-0_0
  6
CONTINUOUS
 62
    7
 10
2655.0200689511494
 20
2381.865625360655
 11
2655.0200689511494
 21
2382.0322751617068
  0
LINE
  8
_0-0_0
  6
CONTINUOUS
 62
    7
 10
2655.0200689511494
 20
2382.0322751617068
 11
2654.3012428761158
 21
2382.7478890132802
  0
LINE
  8
_0-0_0
  6
CONTINUOUS
 62
    7
 10
2655.0200689511494
 20
2382.0322751617068
 11
2655.2890174826262
 21
2382.365574763809
  0
LINE
  8
_0-0_0
  6
CONTINUOUS
 62
    7
 10
2655.2939074559249
 20
2384.414387023794
 11
2655.0249589244499
 21
2384.6986719785291
  0
LINE
  8
_0-0_0
  6
CONTINUOUS
 62
    7
 10
2652.6337619809692
 20
2382.365574763809
 11
2652.912490459044
 21
2382.0812898090749
  0
LINE
  8
_0-0_0
  6
CONTINUOUS
 62
    7
 10
2652.9662801653385
 20
2384.7476866258971
 11
2652.6973316338635
 21
2384.414387023794
  0
CIRCLE
  8
_0-0_0
  6
CONTINUOUS
 62
    7
 10
2684.9662797050969
 20
2383.388751933318
 40
3
  0
CIRCLE
  8
_0-0_0
  6
CONTINUOUS
 62
    7
 10
2653.9662797050969
 20
2383.388751933318
 40
3
  0
CIRCLE
  8
_0-0_0
  6
CONTINUOUS
 62
    7
 10
2653.9662797050969
 20
1608.388751933318
 40
3
  0
CIRCLE
  8
_0-0_0
  6
CONTINUOUS
 62
    7
 10
2684.9662797050969
 20
1608.388751933318
 40
3
  0
LINE
  8
_0-2_用紙枠
  6
CONTINUOUS
 62
    7
 10
2.5
 20
2.5
 11
5942.5
 21
2.5
  0
LINE
  8
_0-2_用紙枠
  6
CONTINUOUS
 62
    7
 10
5942.5
 20
2.5
 11
5942.5
 21
4202.5
  0
LINE
  8
_0-2_用紙枠
  6
CONTINUOUS
 62
    7
 10
5942.5
 20
4202.5
 11
2.5
 21
4202.5
  0
LINE
  8
_0-2_用紙枠
  6
CONTINUOUS
 62
    7
 10
2.5
 20
4202.5
 11
2.5
 21
2.5
  0
LINE
  8
_0-0_0
  6
CONTINUOUS
 62
    7
 10
2343.9662797050978
 20
2395.0137631715261
 11
2343.9662797050978
 21
2595.2487631715262
  0
LINE
  8
_0-0_0
  6
CONTINUOUS
 62
    7
 10
784.96627970509792
 20
2395.0137631715261
 11
784.96627970509792
 21
2595.2487631715262
  0
LINE
  8
_0-0_0
  6
CONTINUOUS
 62
    7
 10
2273.9662797050978
 20
2594.8887631715261
 11
854.96627970509792
 21
2594.8887631715261
  0
LINE
  8
_0-0_0
  6
CONTINUOUS
 62
    7
 10
2344.0912797050978
 20
2394.8887631715261
 11
2444.3262797050979
 21
2394.8887631715261
  0
LINE
  8
_0-0_0
  6
CONTINUOUS
 62
    7
 10
2344.0912797050978
 20
1596.888751933318
 11
2444.3262797050979
 21
1596.888751933318
  0
LINE
  8
_0-0_0
  6
CONTINUOUS
 62
    7
 10
2443.9662797050978
 20
2324.8887631715261
 11
2443.9662797050978
 21
1666.888751933318
  0
LINE
  8
_0-0_0
  6
CONTINUOUS
 62
    7
 10
2643.9662797050978
 20
2395.013751933318
 11
2643.9662797050978
 21
2595.2487519333181
  0
LINE
  8
_0-0_0
  6
CONTINUOUS
 62
    7
 10
2689.9662797050978
 20
2395.013751933318
 11
2689.9662797050978
 21
2595.2487519333181
  0
LINE
  8
_0-0_0
  6
CONTINUOUS
 62
    7
 10
2573.9662797050978
 20
2594.888751933318
 11
2503.9662797050978
 21
2594.888751933318
  0
LINE
  8
_0-0_0
  6
CONTINUOUS
 62
    7
 10
2759.9662797050978
 20
2594.888751933318
 11
2962.6367342505519
 21
2594.888751933318
  0
LINE
  8
_0-0_0
  6
CONTINUOUS
 62
    7
 10
2643.9662797050978
 20
2594.888751933318
 11
2689.9662797050978
 21
2594.888751933318
  0
LINE
  8
_0-0_0
  6
CONTINUOUS
 62
    7
 10
3657.5
 20
2545.8887575524218
 11
5157.5
 21
2545.8887575524218
  0
LINE
  8
_0-0_0
  6
CONTINUOUS
 62
    7
 10
3657.5
 20
2445.8887575524218
 11
5157.5
 21
2445.8887575524218
  0
LINE
  8
_0-0_0
  6
CONTINUOUS
 62
    7
 10
3657.5
 20
2345.8887575524218
 11
5157.5
 21
2345.8887575524218
  0
LINE
  8
_0-0_0
  6
CONTINUOUS
 62
    7
 10
3657.5
 20
2245.8887575524218
 11
5157.5
 21
2245.8887575524218
  0
LINE
  8
_0-0_0
  6
CONTINUOUS
 62
    7
 10
3657.5
 20
2145.8887575524218
 11
5157.5
 21
2145.8887575524218
  0
LINE
  8
_0-0_0
  6
CONTINUOUS
 62
    7
 10
3657.5
 20
2045.8887575524222
 11
5157.5
 21
2045.8887575524222
  0
LINE
  8
_0-0_0
  6
CONTINUOUS
 62
    7
 10
3657.5
 20
1945.8887575524222
 11
5157.5
 21
1945.8887575524222
  0
LINE
  8
_0-0_0
  6
CONTINUOUS
 62
    7
 10
3657.5
 20
1845.8887575524222
 11
5157.5
 21
1845.8887575524222
  0
LINE
  8
_0-0_0
  6
CONTINUOUS
 62
    7
 10
3657.5
 20
1745.8887575524222
 11
5157.5
 21
1745.8887575524222
  0
LINE
  8
_0-0_0
  6
CONTINUOUS
 62
    7
 10
3657.5
 20
1645.8887575524222
 11
5157.5
 21
1645.8887575524222
  0
LINE
  8
_0-0_0
  6
CONTINUOUS
 62
    7
 10
3657.5
 20
1545.8887575524222
 11
5157.5
 21
1545.8887575524222
  0
LINE
  8
_0-0_0
  6
CONTINUOUS
 62
    7
 10
3657.5
 20
1445.8887575524222
 11
5157.5
 21
1445.8887575524222
  0
LINE
  8
_0-0_0
  6
CONTINUOUS
 62
    7
 10
3657.5
 20
2545.8887575524218
 11
3657.5
 21
1445.8887575524222
  0
LINE
  8
_0-0_0
  6
CONTINUOUS
 62
    7
 10
4357.5
 20
2545.8887575524218
 11
4357.5
 21
1445.8887575524222
  0
LINE
  8
_0-0_0
  6
CONTINUOUS
 62
    7
 10
5157.5
 20
2545.8887575524218
 11
5157.5
 21
1445.8887575524222
  0
LINE
  8
_0-3_図面枠
  6
CONTINUOUS
 62
    7
 10
5742.5
 20
202.5
 11
5742.5
 21
4002.5
  0
LINE
  8
_0-3_図面枠
  6
CONTINUOUS
 62
    7
 10
5742.5
 20
4002.5
 11
402.5
 21
4002.5
  0
LINE
  8
_0-3_図面枠
  6
CONTINUOUS
 62
    7
 10
402.5
 20
4002.5
 11
402.5
 21
202.5
  0
LINE
  8
_0-3_図面枠
  6
CONTINUOUS
 62
    7
 10
402.5
 20
202.5
 11
5742.5
 21
202.5
  0
TEXT
  8
_0-0_0
 62
    7
 10
3660.5
 20
1475.547848461513
 40
40
 41
1
 50
0
  1
  質量
  0
TEXT
  8
_0-0_0
 62
    7
 10
3660.5
 20
1575.547848461513
 40
40
 41
1
 50
0
  1
  外形寸法（WxHxD）
  0
TEXT
  8
_0-0_0
 62
    7
 10
3660.5
 20
1675.4342120978772
 40
40
 41
1
 50
0
  1
  最大システム電圧
  0
TEXT
  8
_0-0_0
 62
    7
 10
3660.5
 20
1774.752393916059
 40
40
 41
1
 50
0
  1
  公称短絡電流
  0
TEXT
  8
_0-0_0
 62
    7
 10
3660.5
 20
1874.9796666433308
 40
40
 41
1
 50
0
  1
  公称開放電圧
  0
TEXT
  8
_0-0_0
 62
    7
 10
3660.5
 20
1975.093303006968
 40
40
 41
1
 50
0
  1
  公称最大出力動作電流
  0
TEXT
  8
_0-0_0
 62
    7
 10
3660.5
 20
2075.0933030069682
 40
40
 41
1
 50
0
  1
  公称最大出力動作電圧
  0
TEXT
  8
_0-0_0
 62
    7
 10
3660.5
 20
2174.9796666433308
 40
40
 41
1
 50
0
  1
  公称最大出力
  0
TEXT
  8
_0-0_0
 62
    7
 10
3660.5
 20
2274.7523939160592
 40
40
 41
1
 50
0
  1
  最大モジュール変換効率
  0
TEXT
  8
_0-0_0
 62
    7
 10
3660.5
 20
2375.4342120978772
 40
40
 41
1
 50
0
  1
  セル種類
  0
TEXT
  8
_0-0_0
 62
    7
 10
3660.5
 20
2474.4114848251488
 40
40
 41
1
 50
0
  1
  型式
  0
TEXT
  8
_0-0_0
 62
    7
 10
2846.3867342505519
 20
2614.888751933318
 40
70
 41
1
 50
0
  1
46
  0
LINE
  8
_0-0_0
  6
CONTINUOUS
 62
    7
 10
2759.9662797050978
 20
2583.2220852666514
 11
2689.9662797050978
 21
2594.888751933318
  0
LINE
  8
_0-0_0
  6
CONTINUOUS
 62
    7
 10
2759.9662797050978
 20
2606.5554185999836
 11
2689.9662797050978
 21
2594.888751933318
  0
LINE
  8
_0-0_0
  6
CONTINUOUS
 62
    7
 10
2689.9662797050978
 20
2594.888751933318
 11
2759.9662797050978
 21
2594.888751933318
  0
LINE
  8
_0-0_0
  6
CONTINUOUS
 62
    7
 10
2573.9662797050978
 20
2606.5554185999836
 11
2643.9662797050978
 21
2594.888751933318
  0
LINE
  8
_0-0_0
  6
CONTINUOUS
 62
    7
 10
2573.9662797050978
 20
2583.2220852666514
 11
2643.9662797050978
 21
2594.888751933318
  0
LINE
  8
_0-0_0
  6
CONTINUOUS
 62
    7
 10
2643.9662797050978
 20
2594.888751933318
 11
2573.9662797050978
 21
2594.888751933318
  0
TEXT
  8
_0-0_0
 62
    7
 10
2423.9662797050969
 20
1918.5308030069673
 40
70
 41
1
 50
90
  1
798
  0
LINE
  8
_0-0_0
  6
CONTINUOUS
 62
    7
 10
2455.6329463717639
 20
1666.888751933318
 11
2443.9662797050978
 21
1596.888751933318
  0
LINE
  8
_0-0_0
  6
CONTINUOUS
 62
    7
 10
2432.2996130384308
 20
1666.888751933318
 11
2443.9662797050978
 21
1596.888751933318
  0
LINE
  8
_0-0_0
  6
CONTINUOUS
 62
    7
 10
2443.9662797050978
 20
1596.888751933318
 11
2443.9662797050978
 21
1666.888751933318
  0
LINE
  8
_0-0_0
  6
CONTINUOUS
 62
    7
 10
2432.2996130384308
 20
2324.8887631715261
 11
2443.9662797050978
 21
2394.8887631715261
  0
LINE
  8
_0-0_0
  6
CONTINUOUS
 62
    7
 10
2455.6329463717639
 20
2324.8887631715261
 11
2443.9662797050978
 21
2394.8887631715261
  0
LINE
  8
_0-0_0
  6
CONTINUOUS
 62
    7
 10
2443.9662797050978
 20
2394.8887631715261
 11
2443.9662797050978
 21
2324.8887631715261
  0
TEXT
  8
_0-0_0
 62
    7
 10
1460.062870614189
 20
2614.8887631715261
 40
70
 41
1
 50
0
  1
1559
  0
LINE
  8
_0-0_0
  6
CONTINUOUS
 62
    7
 10
854.96627970509792
 20
2583.22209650486
 11
784.96627970509792
 21
2594.8887631715261
  0
LINE
  8
_0-0_0
  6
CONTINUOUS
 62
    7
 10
854.96627970509792
 20
2606.555429838193
 11
784.96627970509792
 21
2594.8887631715261
  0
LINE
  8
_0-0_0
  6
CONTINUOUS
 62
    7
 10
784.96627970509792
 20
2594.8887631715261
 11
854.96627970509792
 21
2594.8887631715261
  0
LINE
  8
_0-0_0
  6
CONTINUOUS
 62
    7
 10
2273.9662797050978
 20
2606.555429838193
 11
2343.9662797050978
 21
2594.8887631715261
  0
LINE
  8
_0-0_0
  6
CONTINUOUS
 62
    7
 10
2273.9662797050978
 20
2583.22209650486
 11
2343.9662797050978
 21
2594.8887631715261
  0
LINE
  8
_0-0_0
  6
CONTINUOUS
 62
    7
 10
2343.9662797050978
 20
2594.8887631715261
 11
2273.9662797050978
 21
2594.8887631715261
  0
TEXT
  8
_0-0_0
 62
    7
 10
4607.5
 20
2475.8887575524218
 40
40
 41
1
 50
0
  1
SPR-250NE-WHT-J
  0
TEXT
  8
_0-0_0
 62
    7
 10
4597.5
 20
2374.7523939160578
 40
40
 41
1
 50
0
  1
シリコン単結晶系
  0
TEXT
  8
_0-0_0
 62
    7
 10
4707.5
 20
2275.8887575524218
 40
40
 41
1
 50
0
  1
20.1%
  0
TEXT
  8
_0-0_0
 62
    7
 10
4717.5
 20
2175.8887575524218
 40
40
 41
1
 50
0
  1
250W
  0
TEXT
  8
_0-0_0
 62
    7
 10
4707.5
 20
2075.8887575524218
 40
40
 41
1
 50
0
  1
40.5V
  0
TEXT
  8
_0-0_0
 62
    7
 10
4707.5
 20
1975.8887575524222
 40
40
 41
1
 50
0
  1
6.17A
  0
TEXT
  8
_0-0_0
 62
    7
 10
4707.5
 20
1875.8887575524222
 40
40
 41
1
 50
0
  1
48.8V
  0
TEXT
  8
_0-0_0
 62
    7
 10
4707.5
 20
1775.8887575524222
 40
40
 41
1
 50
0
  1
6.56A
  0
TEXT
  8
_0-0_0
 62
    7
 10
4717.5
 20
1675.8887575524222
 40
40
 41
1
 50
0
  1
600V
  0
TEXT
  8
_0-0_0
 62
    7
 10
4597.5
 20
1578.616030279695
 40
40
 41
1
 50
0
  1
1,559x798x46ｍｍ
  0
TEXT
  8
_0-0_0
 62
    7
 10
4697.5
 20
1476.2296666433313
 40
40
 41
1
 50
0
  1
15.0㎏
  0
ENDSEC
  0
EOF
